  0
SECTION
  2
HEADER
  9
$ACADVER
  1
AC1015
  9
$ACADMAINTVER
 70
     6
  9
$DWGCODEPAGE
  3
ANSI_932
  9
$INSBASE
 10
0.0
 20
0.0
 30
0.0
  9
$EXTMIN
 10
-58.37450474803808
 20
-99.3945543481409
 30
0.0
  9
$EXTMAX
 10
151.625495251962
 20
197.6054456518591
 30
0.0
  9
$LIMMIN
 10
0.0
 20
0.0
  9
$LIMMAX
 10
12.0
 20
9.0
  9
$ORTHOMODE
 70
     0
  9
$REGENMODE
 70
     1
  9
$FILLMODE
 70
     1
  9
$QTEXTMODE
 70
     0
  9
$MIRRTEXT
 70
     1
  9
$LTSCALE
 40
1.0
  9
$ATTMODE
 70
     1
  9
$TEXTSIZE
 40
0.2
  9
$TRACEWID
 40
0.05
  9
$TEXTSTYLE
  7
Standard
  9
$CLAYER
  8
0
  9
$CELTYPE
  6
ByLayer
  9
$CECOLOR
 62
   256
  9
$CELTSCALE
 40
1.0
  9
$DISPSILH
 70
     0
  9
$DIMSCALE
 40
1.0
  9
$DIMASZ
 40
0.18
  9
$DIMEXO
 40
0.0625
  9
$DIMDLI
 40
0.38
  9
$DIMRND
 40
0.0
  9
$DIMDLE
 40
0.0
  9
$DIMEXE
 40
0.18
  9
$DIMTP
 40
0.0
  9
$DIMTM
 40
0.0
  9
$DIMTXT
 40
0.18
  9
$DIMCEN
 40
0.09
  9
$DIMTSZ
 40
0.0
  9
$DIMTOL
 70
     0
  9
$DIMLIM
 70
     0
  9
$DIMTIH
 70
     1
  9
$DIMTOH
 70
     1
  9
$DIMSE1
 70
     0
  9
$DIMSE2
 70
     0
  9
$DIMTAD
 70
     0
  9
$DIMZIN
 70
     0
  9
$DIMBLK
  1

  9
$DIMASO
 70
     1
  9
$DIMSHO
 70
     1
  9
$DIMPOST
  1

  9
$DIMAPOST
  1

  9
$DIMALT
 70
     0
  9
$DIMALTD
 70
     2
  9
$DIMALTF
 40
25.4
  9
$DIMLFAC
 40
1.0
  9
$DIMTOFL
 70
     0
  9
$DIMTVP
 40
0.0
  9
$DIMTIX
 70
     0
  9
$DIMSOXD
 70
     0
  9
$DIMSAH
 70
     0
  9
$DIMBLK1
  1

  9
$DIMBLK2
  1

  9
$DIMSTYLE
  2
Standard
  9
$DIMCLRD
 70
     0
  9
$DIMCLRE
 70
     0
  9
$DIMCLRT
 70
     0
  9
$DIMTFAC
 40
1.0
  9
$DIMGAP
 40
0.09
  9
$DIMJUST
 70
     0
  9
$DIMSD1
 70
     0
  9
$DIMSD2
 70
     0
  9
$DIMTOLJ
 70
     1
  9
$DIMTZIN
 70
     0
  9
$DIMALTZ
 70
     0
  9
$DIMALTTZ
 70
     0
  9
$DIMUPT
 70
     0
  9
$DIMDEC
 70
     4
  9
$DIMTDEC
 70
     4
  9
$DIMALTU
 70
     2
  9
$DIMALTTD
 70
     2
  9
$DIMTXSTY
  7
Standard
  9
$DIMAUNIT
 70
     0
  9
$DIMADEC
 70
     0
  9
$DIMALTRND
 40
0.0
  9
$DIMAZIN
 70
     0
  9
$DIMDSEP
 70
    46
  9
$DIMATFIT
 70
     3
  9
$DIMFRAC
 70
     0
  9
$DIMLDRBLK
  1

  9
$DIMLUNIT
 70
     2
  9
$DIMLWD
 70
    -2
  9
$DIMLWE
 70
    -2
  9
$DIMTMOVE
 70
     0
  9
$LUNITS
 70
     2
  9
$LUPREC
 70
     4
  9
$SKETCHINC
 40
0.1
  9
$FILLETRAD
 40
0.5
  9
$AUNITS
 70
     0
  9
$AUPREC
 70
     0
  9
$MENU
  1
.
  9
$ELEVATION
 40
0.0
  9
$PELEVATION
 40
0.0
  9
$THICKNESS
 40
0.0
  9
$LIMCHECK
 70
     0
  9
$CHAMFERA
 40
0.5
  9
$CHAMFERB
 40
0.5
  9
$CHAMFERC
 40
1.0
  9
$CHAMFERD
 40
0.0
  9
$SKPOLY
 70
     0
  9
$TDCREATE
 40
2459682.43326846
  9
$TDUCREATE
 40
2459682.05826846
  9
$TDUPDATE
 40
2459682.433271342
  9
$TDUUPDATE
 40
2459682.058271342
  9
$TDINDWG
 40
0.0000000116
  9
$TDUSRTIMER
 40
0.0000000116
  9
$USRTIMER
 70
     1
  9
$ANGBASE
 50
0.0
  9
$ANGDIR
 70
     0
  9
$PDMODE
 70
     0
  9
$PDSIZE
 40
0.0
  9
$PLINEWID
 40
0.0
  9
$SPLFRAME
 70
     0
  9
$SPLINETYPE
 70
     6
  9
$SPLINESEGS
 70
     8
  9
$HANDSEED
  5
12F
  9
$SURFTAB1
 70
     6
  9
$SURFTAB2
 70
     6
  9
$SURFTYPE
 70
     6
  9
$SURFU
 70
     6
  9
$SURFV
 70
     6
  9
$UCSBASE
  2

  9
$UCSNAME
  2

  9
$UCSORG
 10
0.0
 20
0.0
 30
0.0
  9
$UCSXDIR
 10
1.0
 20
0.0
 30
0.0
  9
$UCSYDIR
 10
0.0
 20
1.0
 30
0.0
  9
$UCSORTHOREF
  2

  9
$UCSORTHOVIEW
 70
     0
  9
$UCSORGTOP
 10
0.0
 20
0.0
 30
0.0
  9
$UCSORGBOTTOM
 10
0.0
 20
0.0
 30
0.0
  9
$UCSORGLEFT
 10
0.0
 20
0.0
 30
0.0
  9
$UCSORGRIGHT
 10
0.0
 20
0.0
 30
0.0
  9
$UCSORGFRONT
 10
0.0
 20
0.0
 30
0.0
  9
$UCSORGBACK
 10
0.0
 20
0.0
 30
0.0
  9
$PUCSBASE
  2

  9
$PUCSNAME
  2

  9
$PUCSORG
 10
0.0
 20
0.0
 30
0.0
  9
$PUCSXDIR
 10
1.0
 20
0.0
 30
0.0
  9
$PUCSYDIR
 10
0.0
 20
1.0
 30
0.0
  9
$PUCSORTHOREF
  2

  9
$PUCSORTHOVIEW
 70
     0
  9
$PUCSORGTOP
 10
0.0
 20
0.0
 30
0.0
  9
$PUCSORGBOTTOM
 10
0.0
 20
0.0
 30
0.0
  9
$PUCSORGLEFT
 10
0.0
 20
0.0
 30
0.0
  9
$PUCSORGRIGHT
 10
0.0
 20
0.0
 30
0.0
  9
$PUCSORGFRONT
 10
0.0
 20
0.0
 30
0.0
  9
$PUCSORGBACK
 10
0.0
 20
0.0
 30
0.0
  9
$USERI1
 70
     0
  9
$USERI2
 70
     0
  9
$USERI3
 70
     0
  9
$USERI4
 70
     0
  9
$USERI5
 70
     0
  9
$USERR1
 40
18.1
  9
$USERR2
 40
0.0
  9
$USERR3
 40
0.0
  9
$USERR4
 40
0.0
  9
$USERR5
 40
0.0
  9
$WORLDVIEW
 70
     1
  9
$SHADEDGE
 70
     3
  9
$SHADEDIF
 70
    70
  9
$TILEMODE
 70
     1
  9
$MAXACTVP
 70
    64
  9
$PINSBASE
 10
0.0
 20
0.0
 30
0.0
  9
$PLIMCHECK
 70
     0
  9
$PEXTMIN
 10
1.00000000000000E+20
 20
1.00000000000000E+20
 30
1.00000000000000E+20
  9
$PEXTMAX
 10
-1.00000000000000E+20
 20
-1.00000000000000E+20
 30
-1.00000000000000E+20
  9
$PLIMMIN
 10
0.0
 20
0.0
  9
$PLIMMAX
 10
12.0
 20
9.0
  9
$UNITMODE
 70
     0
  9
$VISRETAIN
 70
     1
  9
$PLINEGEN
 70
     0
  9
$PSLTSCALE
 70
     1
  9
$TREEDEPTH
 70
  3020
  9
$CMLSTYLE
  2
Standard
  9
$CMLJUST
 70
     0
  9
$CMLSCALE
 40
1.0
  9
$PROXYGRAPHICS
 70
     1
  9
$MEASUREMENT
 70
     1
  9
$CELWEIGHT
370
    -1
  9
$ENDCAPS
280
     0
  9
$JOINSTYLE
280
     0
  9
$LWDISPLAY
290
     0
  9
$INSUNITS
 70
     4
  9
$HYPERLINKBASE
  1

  9
$STYLESHEET
  1

  9
$XEDIT
290
     1
  9
$CEPSNTYPE
380
     0
  9
$PSTYLEMODE
290
     1
  9
$FINGERPRINTGUID
  2
{76D7C20A-C757-43A0-8ABA-042D3C386E43}
  9
$VERSIONGUID
  2
{FAEB1C32-E019-11D5-929B-00C0DF256EC4}
  9
$EXTNAMES
290
     1
  9
$PSVPSCALE
 40
0.0
  9
$OLESTARTUP
290
     0
  0
ENDSEC
  0
SECTION
  2
CLASSES
  0
CLASS
  1
ACDBDICTIONARYWDFLT
  2
AcDbDictionaryWithDefault
  3
ObjectDBX Classes
 90
        0
280
     0
281
     0
  0
CLASS
  1
VISUALSTYLE
  2
AcDbVisualStyle
  3
ObjectDBX Classes
 90
     4095
280
     0
281
     0
  0
CLASS
  1
MATERIAL
  2
AcDbMaterial
  3
ObjectDBX Classes
 90
     1153
280
     0
281
     0
  0
CLASS
  1
DICTIONARYVAR
  2
AcDbDictionaryVar
  3
ObjectDBX Classes
 90
        0
280
     0
281
     0
  0
CLASS
  1
ACDBPLACEHOLDER
  2
AcDbPlaceHolder
  3
ObjectDBX Classes
 90
        0
280
     0
281
     0
  0
CLASS
  1
LAYOUT
  2
AcDbLayout
  3
ObjectDBX Classes
 90
        0
280
     0
281
     0
  0
ENDSEC
  0
SECTION
  2
TABLES
  0
TABLE
  2
VPORT
  5
8
330
0
100
AcDbSymbolTable
 70
     1
  0
VPORT
  5
29
330
8
100
AcDbSymbolTableRecord
100
AcDbViewportTableRecord
  2
*Active
 70
     0
 10
0.0
 20
0.0
 11
1.0
 21
1.0
 12
46.62549525196196
 22
49.1054456518591
 13
0.0
 23
0.0
 14
0.5
 24
0.5
 15
0.5
 25
0.5
 16
0.0
 26
0.0
 36
1.0
 17
0.0
 27
0.0
 37
0.0
 40
326.7
 41
1.60267857142857
 42
50.0
 43
0.0
 44
0.0
 50
0.0
 51
0.0
 71
     0
 72
   100
 73
     1
 74
     3
 75
     0
 76
     0
 77
     0
 78
     0
281
     0
 65
     1
110
0.0
120
0.0
130
0.0
111
1.0
121
0.0
131
0.0
112
0.0
122
1.0
132
0.0
 79
     0
146
0.0
  0
ENDTAB
  0
TABLE
  2
LTYPE
  5
5
330
0
100
AcDbSymbolTable
 70
     8
  0
LTYPE
  5
14
330
5
100
AcDbSymbolTableRecord
100
AcDbLinetypeTableRecord
  2
ByBlock
 70
     0
  3

 72
    65
 73
     0
 40
0.0
  0
LTYPE
  5
15
330
5
100
AcDbSymbolTableRecord
100
AcDbLinetypeTableRecord
  2
ByLayer
 70
     0
  3

 72
    65
 73
     0
 40
0.0
  0
LTYPE
  5
16
330
5
100
AcDbSymbolTableRecord
100
AcDbLinetypeTableRecord
  2
Continuous
 70
     0
  3
Solid line
 72
    65
 73
     0
 40
0.0
  0
LTYPE
  5
3F
330
5
100
AcDbSymbolTableRecord
100
AcDbLinetypeTableRecord
  2
DASHED
 70
     0
  3
Dashed
 72
    65
 73
     2
 40
15.0
 49
7.0
 74
     0
 49
-8.0
 74
     0
  0
LTYPE
  5
40
330
5
100
AcDbSymbolTableRecord
100
AcDbLinetypeTableRecord
  2
DOTTED
 70
     0
  3
Dotted
 72
    65
 73
     2
 40
1.0
 49
0.0
 74
     0
 49
-1.0
 74
     0
  0
LTYPE
  5
41
330
5
100
AcDbSymbolTableRecord
100
AcDbLinetypeTableRecord
  2
DOT_CENTER
 70
     0
  3
Dot_Center
 72
    65
 73
     4
 40
14.0
 49
12.0
 74
     0
 49
-1.0
 74
     0
 49
0.0
 74
     0
 49
-1.0
 74
     0
  0
LTYPE
  5
42
330
5
100
AcDbSymbolTableRecord
100
AcDbLinetypeTableRecord
  2
LONG_DASHED
 70
     0
  3
Long_Dashed
 72
    65
 73
     2
 40
15.0
 49
10.0
 74
     0
 49
-5.0
 74
     0
  0
LTYPE
  5
43
330
5
100
AcDbSymbolTableRecord
100
AcDbLinetypeTableRecord
  2
DASH_CENTER
 70
     0
  3
Dash_Center
 72
    65
 73
     4
 40
14.0
 49
11.0
 74
     0
 49
-1.0
 74
     0
 49
1.0
 74
     0
 49
-1.0
 74
     0
  0
LTYPE
  5
44
330
5
100
AcDbSymbolTableRecord
100
AcDbLinetypeTableRecord
  2
PHANTOM
 70
     0
  3
Phantom
 72
    65
 73
     6
 40
13.0
 49
10.0
 74
     0
 49
-1.0
 74
     0
 49
0.0
 74
     0
 49
-1.0
 74
     0
 49
0.0
 74
     0
 49
-1.0
 74
     0
  0
LTYPE
  5
45
330
5
100
AcDbSymbolTableRecord
100
AcDbLinetypeTableRecord
  2
CENTER_DASH_DASH
 70
     0
  3
Center_Dash_Dash
 72
    65
 73
     6
 40
14.0
 49
9.0
 74
     0
 49
-1.0
 74
     0
 49
1.0
 74
     0
 49
-1.0
 74
     0
 49
1.0
 74
     0
 49
-1.0
 74
     0
  0
ENDTAB
  0
TABLE
  2
LAYER
  5
2
330
0
100
AcDbSymbolTable
 70
     3
  0
LAYER
  5
10
330
2
100
AcDbSymbolTableRecord
100
AcDbLayerTableRecord
  2
0
 70
     0
 62
     7
  6
Continuous
370
    -3
390
F
  0
LAYER
  5
46
330
2
100
AcDbSymbolTableRecord
100
AcDbLayerTableRecord
  2
1
 70
     0
 62
     7
  6
Continuous
370
    -3
390
F
  0
LAYER
  5
47
330
2
100
AcDbSymbolTableRecord
100
AcDbLayerTableRecord
  2
_U_30EC_U_30A4_U_30E4_U_30FC_1
 70
     0
 62
     7
  6
Continuous
370
    -3
390
F
  0
ENDTAB
  0
TABLE
  2
STYLE
  5
3
330
0
100
AcDbSymbolTable
 70
     3
  0
STYLE
  5
11
330
3
100
AcDbSymbolTableRecord
100
AcDbTextStyleTableRecord
  2
Standard
 70
     0
 40
0.0
 41
1.0
 50
0.0
 71
     0
 42
0.2
  3
txt
  4

  0
STYLE
  5
B6
330
3
100
AcDbSymbolTableRecord
100
AcDbTextStyleTableRecord
  2
CONVERTER_11
 70
     0
 40
0.0
 41
0.89
 50
0.0
 71
     0
 42
0.2
  3
MS Mincho.ttf
  4

1001
ACAD
1000
MS Mincho
1071
    32785
  0
STYLE
  5
E0
330
3
100
AcDbSymbolTableRecord
100
AcDbTextStyleTableRecord
  2
CONVERTER_12
 70
     0
 40
0.0
 41
0.9
 50
0.0
 71
     0
 42
0.2
  3
txt.shx
  4

  0
ENDTAB
  0
TABLE
  2
VIEW
  5
6
330
0
100
AcDbSymbolTable
 70
     0
  0
ENDTAB
  0
TABLE
  2
UCS
  5
7
330
0
100
AcDbSymbolTable
 70
     0
  0
ENDTAB
  0
TABLE
  2
APPID
  5
9
330
0
100
AcDbSymbolTable
 70
     1
  0
APPID
  5
12
330
9
100
AcDbSymbolTableRecord
100
AcDbRegAppTableRecord
  2
ACAD
 70
     0
  0
ENDTAB
  0
TABLE
  2
DIMSTYLE
  5
A
330
0
100
AcDbSymbolTable
 70
     1
100
AcDbDimStyleTable
  0
DIMSTYLE
105
27
330
A
100
AcDbSymbolTableRecord
100
AcDbDimStyleTableRecord
  2
Standard
 70
     0
178
     0
340
11
  0
ENDTAB
  0
TABLE
  2
BLOCK_RECORD
  5
1
330
0
100
AcDbSymbolTable
 70
     7
  0
BLOCK_RECORD
  5
1F
330
1
100
AcDbSymbolTableRecord
100
AcDbBlockTableRecord
  2
*Model_Space
340
22
  0
BLOCK_RECORD
  5
1B
330
1
100
AcDbSymbolTableRecord
100
AcDbBlockTableRecord
  2
*Paper_Space
340
1E
  0
BLOCK_RECORD
  5
23
330
1
100
AcDbSymbolTableRecord
100
AcDbBlockTableRecord
  2
*Paper_Space0
340
26
  0
BLOCK_RECORD
  5
48
330
1
100
AcDbSymbolTableRecord
100
AcDbBlockTableRecord
  2
開示A4
340
0
102
{BLKREFS
331
4C
102
}
  0
BLOCK_RECORD
  5
4B
330
1
100
AcDbSymbolTableRecord
100
AcDbBlockTableRecord
  2
開示A4枠
340
0
102
{BLKREFS
331
52
102
}
  0
BLOCK_RECORD
  5
4F
330
1
100
AcDbSymbolTableRecord
100
AcDbBlockTableRecord
  2
H80-99
340
0
102
{BLKREFS
331
53
102
}
  0
BLOCK_RECORD
  5
ED
330
1
100
AcDbSymbolTableRecord
100
AcDbBlockTableRecord
  2
*D4
340
0
102
{BLKREFS
331
F4
102
}
  0
BLOCK_RECORD
  5
F5
330
1
100
AcDbSymbolTableRecord
100
AcDbBlockTableRecord
  2
*D5
340
0
102
{BLKREFS
331
FC
102
}
  0
BLOCK_RECORD
  5
FD
330
1
100
AcDbSymbolTableRecord
100
AcDbBlockTableRecord
  2
*D6
340
0
102
{BLKREFS
331
103
102
}
  0
ENDTAB
  0
ENDSEC
  0
SECTION
  2
BLOCKS
  0
BLOCK
  5
20
330
1F
100
AcDbEntity
  8
0
100
AcDbBlockBegin
  2
*Model_Space
 70
     0
 10
0.0
 20
0.0
 30
0.0
  3
*Model_Space
  1

  0
ENDBLK
  5
21
330
1F
100
AcDbEntity
  8
0
100
AcDbBlockEnd
  0
BLOCK
  5
1C
330
1B
100
AcDbEntity
 67
     1
  8
0
100
AcDbBlockBegin
  2
*Paper_Space
 70
     0
 10
0.0
 20
0.0
 30
0.0
  3
*Paper_Space
  1

  0
ENDBLK
  5
1D
330
1B
100
AcDbEntity
 67
     1
  8
0
100
AcDbBlockEnd
  0
BLOCK
  5
24
330
23
100
AcDbEntity
  8
0
100
AcDbBlockBegin
  2
*Paper_Space0
 70
     0
 10
0.0
 20
0.0
 30
0.0
  3
*Paper_Space0
  1

  0
ENDBLK
  5
25
330
23
100
AcDbEntity
  8
0
100
AcDbBlockEnd
  0
BLOCK
  5
49
330
48
100
AcDbEntity
  8
0
100
AcDbBlockBegin
  2
開示A4
 70
     0
 10
-58.37450474803808
 20
-99.3945543481409
 30
0.0
  3
開示A4
  1

  0
POINT
  5
54
330
48
100
AcDbEntity
  8
1
 62
     4
100
AcDbPoint
 10
124.625495251962
 20
-84.39455434814089
 30
0.0
  0
POINT
  5
55
330
48
100
AcDbEntity
  8
1
 62
     4
100
AcDbPoint
 10
35.37549525196195
 20
-82.3945543481409
 30
0.0
  0
POINT
  5
56
330
48
100
AcDbEntity
  8
1
 62
     4
100
AcDbPoint
 10
26.87549525196192
 20
-82.3945543481409
 30
0.0
  0
POINT
  5
57
330
48
100
AcDbEntity
  8
1
 62
     4
100
AcDbPoint
 10
48.12549525196195
 20
-80.39455434814089
 30
0.0
  0
POINT
  5
58
330
48
100
AcDbEntity
  8
1
 62
     4
100
AcDbPoint
 10
48.12549525196195
 20
-86.8945543481409
 30
0.0
  0
POINT
  5
59
330
48
100
AcDbEntity
  8
1
 62
     4
100
AcDbPoint
 10
53.87549525196195
 20
-86.8945543481409
 30
0.0
  0
POINT
  5
5A
330
48
100
AcDbEntity
  8
1
 62
     4
100
AcDbPoint
 10
42.37549525196195
 20
-86.8945543481409
 30
0.0
  0
POINT
  5
5B
330
48
100
AcDbEntity
  8
1
 62
     4
100
AcDbPoint
 10
65.12549525196195
 20
-80.39455434814089
 30
0.0
  0
POINT
  5
5C
330
48
100
AcDbEntity
  8
1
 62
     4
100
AcDbPoint
 10
65.12549525196195
 20
-86.8945543481409
 30
0.0
  0
POINT
  5
5D
330
48
100
AcDbEntity
  8
1
 62
     4
100
AcDbPoint
 10
70.87549525196195
 20
-86.8945543481409
 30
0.0
  0
POINT
  5
5E
330
48
100
AcDbEntity
  8
1
 62
     4
100
AcDbPoint
 10
59.37549525196195
 20
-86.8945543481409
 30
0.0
  0
POINT
  5
5F
330
48
100
AcDbEntity
  8
1
 62
     4
100
AcDbPoint
 10
82.12549525196195
 20
-80.39455434814089
 30
0.0
  0
POINT
  5
60
330
48
100
AcDbEntity
  8
1
 62
     4
100
AcDbPoint
 10
82.12549525196195
 20
-86.8945543481409
 30
0.0
  0
POINT
  5
61
330
48
100
AcDbEntity
  8
1
 62
     4
100
AcDbPoint
 10
87.87549525196195
 20
-86.8945543481409
 30
0.0
  0
POINT
  5
62
330
48
100
AcDbEntity
  8
1
 62
     4
100
AcDbPoint
 10
76.37549525196195
 20
-86.8945543481409
 30
0.0
  0
POINT
  5
63
330
48
100
AcDbEntity
  8
1
 62
     4
100
AcDbPoint
 10
93.37549525196195
 20
-86.8945543481409
 30
0.0
  0
POINT
  5
64
330
48
100
AcDbEntity
  8
1
 62
     4
100
AcDbPoint
 10
104.875495251962
 20
-86.8945543481409
 30
0.0
  0
POINT
  5
65
330
48
100
AcDbEntity
  8
1
 62
     4
100
AcDbPoint
 10
99.12549525196195
 20
-86.8945543481409
 30
0.0
  0
POINT
  5
66
330
48
100
AcDbEntity
  8
1
 62
     4
100
AcDbPoint
 10
-1.37450474803808
 20
-85.1445543481409
 30
0.0
  0
POINT
  5
67
330
48
100
AcDbEntity
  8
1
 62
     4
100
AcDbPoint
 10
-1.37450474803808
 20
-76.64455434814089
 30
0.0
  0
POINT
  5
68
330
48
100
AcDbEntity
  8
1
 62
     4
100
AcDbPoint
 10
-10.87450474803808
 20
182.6054456518594
 30
0.0
  0
POINT
  5
69
330
48
100
AcDbEntity
  8
1
 62
     4
100
AcDbPoint
 10
99.12549525196195
 20
-80.39455434814089
 30
0.0
  0
POINT
  5
6A
330
48
100
AcDbEntity
  8
1
 62
     4
100
AcDbPoint
 10
-1.37450474803808
 20
-83.1445543481409
 30
0.0
  0
POINT
  5
6B
330
48
100
AcDbEntity
  8
1
 62
     4
100
AcDbPoint
 10
-1.37450474803808
 20
-74.64455434814089
 30
0.0
  0
POINT
  5
6C
330
48
100
AcDbEntity
  8
1
 62
     4
100
AcDbPoint
 10
-1.37450474803808
 20
-78.64455434814089
 30
0.0
  0
POINT
  5
6D
330
48
100
AcDbEntity
  8
1
 62
     4
100
AcDbPoint
 10
-1.37450474803808
 20
-87.1445543481409
 30
0.0
  0
POINT
  5
6E
330
48
100
AcDbEntity
  8
1
 62
     4
100
AcDbPoint
 10
-24.37450474803808
 20
-65.39455434814089
 30
0.0
  0
LINE
  5
73
330
48
100
AcDbEntity
  8
1
  6
Continuous
 62
     7
100
AcDbLine
 10
46.62549525196195
 20
-89.3945543481409
 30
0.0
 11
141.625495251962
 21
-89.3945543481409
 31
0.0
  0
LINE
  5
74
330
48
100
AcDbEntity
  8
1
  6
Continuous
 62
     2
100
AcDbLine
 10
46.62549525196195
 20
-89.3945543481409
 30
0.0
 11
46.62549525196195
 21
-94.3945543481409
 31
0.0
  0
LINE
  5
75
330
48
100
AcDbEntity
  8
1
  6
Continuous
 62
     7
100
AcDbLine
 10
141.625495251962
 20
49.1054456518591
 30
0.0
 11
141.625495251962
 21
187.6054456518594
 31
0.0
  0
LINE
  5
76
330
48
100
AcDbEntity
  8
1
  6
Continuous
 62
     2
100
AcDbLine
 10
141.625495251962
 20
49.1054456518591
 30
0.0
 11
146.625495251962
 21
49.1054456518591
 31
0.0
  0
LINE
  5
77
330
48
100
AcDbEntity
  8
1
  6
Continuous
 62
     7
100
AcDbLine
 10
-33.37450474803808
 20
49.1054456518591
 30
0.0
 11
-33.37450474803808
 21
187.6054456518594
 31
0.0
  0
LINE
  5
78
330
48
100
AcDbEntity
  8
1
  6
Continuous
 62
     2
100
AcDbLine
 10
-33.37450474803808
 20
49.1054456518591
 30
0.0
 11
-38.37450474803808
 21
49.1054456518591
 31
0.0
  0
LINE
  5
79
330
48
100
AcDbEntity
  8
1
  6
Continuous
 62
     7
100
AcDbLine
 10
46.62549525196195
 20
187.6054456518594
 30
0.0
 11
-33.37450474803808
 21
187.6054456518594
 31
0.0
  0
LINE
  5
7A
330
48
100
AcDbEntity
  8
1
  6
Continuous
 62
     2
100
AcDbLine
 10
46.62549525196195
 20
187.6054456518594
 30
0.0
 11
46.62549525196195
 21
192.6054456518594
 31
0.0
  0
LINE
  5
7B
330
48
100
AcDbEntity
  8
1
  6
Continuous
 62
     2
100
AcDbLine
 10
107.625495251962
 20
-79.39455434814089
 30
0.0
 11
141.625495251962
 21
-79.39455434814089
 31
0.0
  0
LINE
  5
7C
330
48
100
AcDbEntity
  8
1
  6
Continuous
 62
     2
100
AcDbLine
 10
39.62549525196195
 20
-72.39455434814089
 30
0.0
 11
39.62549525196195
 21
-89.3945543481409
 31
0.0
  0
LINE
  5
7D
330
48
100
AcDbEntity
  8
1
  6
Continuous
 62
     2
100
AcDbLine
 10
56.62549525196195
 20
-72.39455434814089
 30
0.0
 11
56.62549525196195
 21
-89.3945543481409
 31
0.0
  0
LINE
  5
7E
330
48
100
AcDbEntity
  8
1
  6
Continuous
 62
     2
100
AcDbLine
 10
90.62549525196195
 20
-72.39455434814089
 30
0.0
 11
90.62549525196195
 21
-89.3945543481409
 31
0.0
  0
LINE
  5
7F
330
48
100
AcDbEntity
  8
1
  6
Continuous
 62
     2
100
AcDbLine
 10
73.62549525196195
 20
-72.39455434814089
 30
0.0
 11
73.62549525196195
 21
-89.3945543481409
 31
0.0
  0
LINE
  5
80
330
48
100
AcDbEntity
  8
1
  6
Continuous
 62
     2
100
AcDbLine
 10
107.625495251962
 20
-72.39455434814089
 30
0.0
 11
107.625495251962
 21
-89.3945543481409
 31
0.0
  0
LINE
  5
81
330
48
100
AcDbEntity
  8
1
  6
Continuous
 62
     2
100
AcDbLine
 10
-3.37450474803808
 20
177.6054456518594
 30
0.0
 11
-33.37450474803808
 21
177.6054456518594
 31
0.0
  0
LINE
  5
82
330
48
100
AcDbEntity
  8
1
  6
Continuous
 62
     7
100
AcDbLine
 10
-33.37450474803808
 20
-89.3945543481409
 30
0.0
 11
-33.37450474803808
 21
49.1054456518591
 31
0.0
  0
LINE
  5
83
330
48
100
AcDbEntity
  8
1
  6
Continuous
 62
     2
100
AcDbLine
 10
-18.37450474803808
 20
187.6054456518594
 30
0.0
 11
-18.37450474803808
 21
177.6054456518594
 31
0.0
  0
LINE
  5
84
330
48
100
AcDbEntity
  8
1
  6
Continuous
 62
     2
100
AcDbLine
 10
-3.37450474803808
 20
187.6054456518594
 30
0.0
 11
-3.37450474803808
 21
177.6054456518594
 31
0.0
  0
LINE
  5
85
330
48
100
AcDbEntity
  8
1
  6
Continuous
 62
     2
100
AcDbLine
 10
-25.37450474803808
 20
-58.39455434814089
 30
0.0
 11
-25.37450474803808
 21
-72.3945543481409
 31
0.0
  0
LINE
  5
86
330
48
100
AcDbEntity
  8
1
  6
Continuous
 62
     7
100
AcDbLine
 10
141.625495251962
 20
-72.39455434814089
 30
0.0
 11
-33.37450474803808
 21
-72.39455434814089
 31
0.0
  0
LINE
  5
87
330
48
100
AcDbEntity
  8
1
  6
Continuous
 62
     7
100
AcDbLine
 10
-33.37450474803808
 20
-58.39455434814089
 30
0.0
 11
141.625495251962
 21
-58.39455434814089
 31
0.0
  0
LINE
  5
88
330
48
100
AcDbEntity
  8
1
  6
PHANTOM
 62
     4
100
AcDbLine
 10
-58.37450474803808
 20
-99.3945543481409
 30
0.0
 11
151.625495251962
 21
-99.3945543481409
 31
0.0
  0
LINE
  5
89
330
48
100
AcDbEntity
  8
1
  6
PHANTOM
 62
     4
100
AcDbLine
 10
151.625495251962
 20
-99.3945543481409
 30
0.0
 11
151.625495251962
 21
197.6054456518591
 31
0.0
  0
LINE
  5
8A
330
48
100
AcDbEntity
  8
1
  6
PHANTOM
 62
     4
100
AcDbLine
 10
151.625495251962
 20
197.6054456518591
 30
0.0
 11
-58.37450474803808
 21
197.6054456518591
 31
0.0
  0
LINE
  5
8B
330
48
100
AcDbEntity
  8
1
  6
PHANTOM
 62
     4
100
AcDbLine
 10
-58.37450474803808
 20
197.6054456518591
 30
0.0
 11
-58.37450474803808
 21
-99.3945543481409
 31
0.0
  0
LINE
  5
8C
330
48
100
AcDbEntity
  8
1
  6
Continuous
 62
     7
100
AcDbLine
 10
-33.37450474803808
 20
-89.3945543481409
 30
0.0
 11
46.62549525196195
 21
-89.3945543481409
 31
0.0
  0
LINE
  5
8D
330
48
100
AcDbEntity
  8
1
  6
Continuous
 62
     7
100
AcDbLine
 10
141.625495251962
 20
-89.3945543481409
 30
0.0
 11
141.625495251962
 21
49.1054456518591
 31
0.0
  0
LINE
  5
8E
330
48
100
AcDbEntity
  8
1
  6
Continuous
 62
     7
100
AcDbLine
 10
141.625495251962
 20
187.6054456518594
 30
0.0
 11
46.62549525196195
 21
187.6054456518594
 31
0.0
  0
LINE
  5
8F
330
48
100
AcDbEntity
  8
1
  6
Continuous
 62
     2
100
AcDbLine
 10
-33.37450474803808
 20
-80.89455434814089
 30
0.0
 11
22.62549525196192
 21
-80.89455434814089
 31
0.0
  0
LINE
  5
90
330
48
100
AcDbEntity
  8
1
  6
Continuous
 62
     2
100
AcDbLine
 10
-25.37450474803808
 20
-72.3945543481409
 30
0.0
 11
-25.37450474803808
 21
-89.3945543481409
 31
0.0
  0
LINE
  5
91
330
48
100
AcDbEntity
  8
1
  6
Continuous
 62
     7
100
AcDbLine
 10
132.625495251962
 20
-74.69455434814088
 30
0.0
 11
132.625495251962
 21
-77.09455434814089
 31
0.0
  0
LINE
  5
92
330
48
100
AcDbEntity
  8
1
  6
Continuous
 62
     7
100
AcDbLine
 10
132.625495251962
 20
-74.69455434814088
 30
0.0
 11
137.625495251962
 21
-73.89455434814089
 31
0.0
  0
LINE
  5
93
330
48
100
AcDbEntity
  8
1
  6
Continuous
 62
     7
100
AcDbLine
 10
137.625495251962
 20
-73.89455434814089
 30
0.0
 11
137.625495251962
 21
-77.89455434814089
 31
0.0
  0
LINE
  5
94
330
48
100
AcDbEntity
  8
1
  6
Continuous
 62
     7
100
AcDbLine
 10
137.625495251962
 20
-77.89455434814089
 30
0.0
 11
132.625495251962
 21
-77.09455434814089
 31
0.0
  0
LINE
  5
95
330
48
100
AcDbEntity
  8
1
  6
DOT_CENTER
 62
     2
100
AcDbLine
 10
125.625495251962
 20
-75.89455434814089
 30
0.0
 11
138.625495251962
 21
-75.89455434814089
 31
0.0
  0
LINE
  5
96
330
48
100
AcDbEntity
  8
1
  6
DOT_CENTER
 62
     2
100
AcDbLine
 10
128.625495251962
 20
-72.89455434814089
 30
0.0
 11
128.625495251962
 21
-78.89455434814089
 31
0.0
  0
LINE
  5
97
330
48
100
AcDbEntity
  8
1
  6
Continuous
 62
     2
100
AcDbLine
 10
22.62549525196192
 20
-72.39455434814089
 30
0.0
 11
22.62549525196192
 21
-89.3945543481409
 31
0.0
  0
CIRCLE
  5
98
330
48
100
AcDbEntity
  8
1
  6
Continuous
 62
     7
100
AcDbCircle
 10
45.12549525196195
 20
-86.8945543481409
 30
0.0
 40
0.2999999999999616
  0
CIRCLE
  5
99
330
48
100
AcDbEntity
  8
1
  6
Continuous
 62
     7
100
AcDbCircle
 10
51.12549525196195
 20
-86.8945543481409
 30
0.0
 40
0.2999999999999616
  0
CIRCLE
  5
9A
330
48
100
AcDbEntity
  8
1
  6
Continuous
 62
     7
100
AcDbCircle
 10
62.12549525196195
 20
-86.8945543481409
 30
0.0
 40
0.2999999999999616
  0
CIRCLE
  5
9B
330
48
100
AcDbEntity
  8
1
  6
Continuous
 62
     7
100
AcDbCircle
 10
68.12549525196195
 20
-86.8945543481409
 30
0.0
 40
0.2999999999999545
  0
CIRCLE
  5
9C
330
48
100
AcDbEntity
  8
1
  6
Continuous
 62
     7
100
AcDbCircle
 10
79.12549525196195
 20
-86.8945543481409
 30
0.0
 40
0.2999999999999545
  0
CIRCLE
  5
9D
330
48
100
AcDbEntity
  8
1
  6
Continuous
 62
     7
100
AcDbCircle
 10
85.12549525196195
 20
-86.8945543481409
 30
0.0
 40
0.2999999999999545
  0
CIRCLE
  5
9E
330
48
100
AcDbEntity
  8
1
  6
Continuous
 62
     7
100
AcDbCircle
 10
102.125495251962
 20
-86.8945543481409
 30
0.0
 40
0.2999999999999119
  0
CIRCLE
  5
9F
330
48
100
AcDbEntity
  8
1
  6
Continuous
 62
     7
100
AcDbCircle
 10
96.12549525196195
 20
-86.8945543481409
 30
0.0
 40
0.2999999999999545
  0
CIRCLE
  5
A0
330
48
100
AcDbEntity
  8
1
  6
Continuous
 62
     7
100
AcDbCircle
 10
128.625495251962
 20
-75.89455434814089
 30
0.0
 40
1.199999999999989
  0
CIRCLE
  5
A1
330
48
100
AcDbEntity
  8
1
  6
Continuous
 62
     7
100
AcDbCircle
 10
128.625495251962
 20
-75.89455434814089
 30
0.0
 40
2.0
  0
CIRCLE
  5
A2
330
48
100
AcDbEntity
  8
1
  6
DOT_CENTER
 62
     7
100
AcDbCircle
 10
31.12549525196195
 20
-83.3945543481409
 30
0.0
 40
0.1000000000000192
  0
CIRCLE
  5
A3
330
48
100
AcDbEntity
  8
1
  6
DOT_CENTER
 62
     7
100
AcDbCircle
 10
31.12549525196195
 20
-81.3945543481409
 30
0.0
 40
0.1000000000000192
  0
SPLINE
  5
A4
102
{ACAD_REACTORS
330
C3
102
}
330
48
100
AcDbEntity
  8
_U_30EC_U_30A4_U_30E4_U_30FC_1
  6
Continuous
 62
     2
100
AcDbSpline
210
0.0
220
0.0
230
1.0
 70
     8
 71
     3
 72
    24
 73
    20
 74
    18
 42
0.000000001
 43
0.0000000001
 44
0.00000001
 40
0.0
 40
0.0
 40
0.0
 40
0.0
 40
0.2211075008753675
 40
0.4273218586245341
 40
0.5080174679239021
 40
0.5914835907870525
 40
0.8143265690192959
 40
1.054651302686615
 40
1.295452694023207
 40
1.518109231328867
 40
1.54086432190547
 40
1.595126460622742
 40
1.659890947896126
 40
1.714153085187498
 40
1.736908174961802
 40
1.764951100735543
 40
1.801562291221145
 40
1.953914424543819
 40
2.12610416737989
 40
2.12610416737989
 40
2.12610416737989
 40
2.12610416737989
 10
127.5630322076508
 20
-83.80466139701073
 30
0.0
 10
127.5367531601431
 20
-83.86357806579716
 30
0.0
 10
127.4859651414045
 20
-83.97744295134834
 30
0.0
 10
127.4386737358731
 20
-84.25013476580978
 30
0.0
 10
127.3298435322237
 20
-84.15009952238631
 30
0.0
 10
127.1769752799256
 20
-84.12336841446763
 30
0.0
 10
127.3941107700818
 20
-83.90937299796457
 30
0.0
 10
127.4093436193999
 20
-83.69123317031602
 30
0.0
 10
127.516184201162
 20
-83.51003855747668
 30
0.0
 10
127.4560333466696
 20
-83.22542208502682
 30
0.0
 10
127.5589269915021
 20
-83.2534134559164
 30
0.0
 10
127.6034885987769
 20
-83.26212183211788
 30
0.0
 10
127.6635794915016
 20
-83.27315780630735
 30
0.0
 10
127.7011572107058
 20
-83.28687911758524
 30
0.0
 10
127.7507419448226
 20
-83.2869935865387
 30
0.0
 10
127.7185111438944
 20
-83.32148842415465
 30
0.0
 10
127.64267547415
 20
-83.31051330276125
 30
0.0
 10
127.6684399679313
 20
-83.49596465231642
 30
0.0
 10
127.6310849283469
 20
-83.587531212645
 30
0.0
 10
127.6112657481228
 20
-83.63611299416384
 30
0.0
 11
127.5630322076508
 21
-83.80466139701073
 31
0.0
 11
127.4871423848171
 21
-84.0123372649553
 31
0.0
 11
127.3972354758052
 21
-84.19792042457897
 31
0.0
 11
127.3266446442729
 21
-84.15882162250539
 31
0.0
 11
127.250047771227
 21
-84.1256627162637
 31
0.0
 11
127.3468979467074
 21
-83.92496633610553
 31
0.0
 11
127.424959398709
 21
-83.69767271637066
 31
0.0
 11
127.4844669449339
 21
-83.46433998205399
 31
0.0
 11
127.5256554030845
 21
-83.24552625815035
 31
0.0
 11
127.5479136341833
 21
-83.25025545592695
 31
0.0
 11
127.6009909544959
 21
-83.2615327737019
 31
0.0
 11
127.6643413045464
 21
-83.27499279814297
 31
0.0
 11
127.717418624859
 21
-83.28627011591793
 31
0.0
 11
127.7396768559578
 21
-83.29099931369453
 31
0.0
 11
127.721904967708
 21
-83.3126918397308
 31
0.0
 11
127.686107551769
 21
-83.32036806368723
 31
0.0
 11
127.6536905821099
 21
-83.46923146642776
 31
0.0
 11
127.6112657481228
 21
-83.63611299416384
 31
0.0
  0
SPLINE
  5
A5
102
{ACAD_REACTORS
330
C3
102
}
330
48
100
AcDbEntity
  8
_U_30EC_U_30A4_U_30E4_U_30FC_1
  6
Continuous
 62
     2
100
AcDbSpline
210
0.0
220
0.0
230
1.0
 70
     8
 71
     3
 72
    70
 73
    66
 74
    64
 42
0.000000001
 43
0.0000000001
 44
0.00000001
 40
0.0
 40
0.0
 40
0.0
 40
0.0
 40
0.024173107302133
 40
0.0846058988987013
 40
0.1631685280353284
 40
0.2417311571789613
 40
0.3021639488292751
 40
0.3263370654895825
 40
0.3533118254249254
 40
0.422878343892252
 40
0.5179999095313846
 40
0.6216398239466386
 40
0.7167613891499954
 40
0.786327906965029
 40
0.8133026791762191
 40
0.8372943998771752
 40
0.8945054261373084
 40
0.9627895541962854
 40
1.020000580349097
 40
1.043992300975193
 40
1.071934345522924
 40
1.113121768772936
 40
1.14522519933224
 40
1.225483775412792
 40
1.329819923771504
 40
1.434156071994417
 40
1.514414647795812
 40
1.546518078208431
 40
1.578974764260204
 40
1.662678849314171
 40
1.77713137366842
 40
1.90183337747481
 40
2.0162859005006
 40
2.099989982527967
 40
2.132446666570326
 40
2.158782354486059
 40
2.216720867907833
 40
2.274659381334255
 40
2.300995069256198
 40
2.33345175406617
 40
2.41715583654385
 40
2.53160835898529
 40
2.656310362283785
 40
2.770762886388917
 40
2.854466971340083
 40
2.886923657363889
 40
2.91359797683331
 40
2.982389642875114
 40
3.076451716946986
 40
3.178937260458619
 40
3.272999334740001
 40
3.341791001059244
 40
3.368465320663555
 40
3.396976080738776
 40
3.472140811845984
 40
3.578408190308702
 40
3.700226892456167
 40
3.822045594634355
 40
3.928312973256462
 40
4.003477705314888
 40
4.031988456866925
 40
4.058324144797735
 40
4.116262658236876
 40
4.17420117140068
 40
4.200536849608609
 40
4.200536849608609
 40
4.200536849608609
 40
4.200536849608609
 10
127.6112657481228
 20
-83.63611299416384
 30
0.0
 10
127.6193212064298
 20
-83.63611075002403
 30
0.0
 10
127.6475153182859
 20
-83.63610288781284
 30
0.0
 10
127.7020487323292
 20
-83.63624679985722
 30
0.0
 10
127.7737844328222
 20
-83.63546314314185
 30
0.0
 10
127.8491192656682
 20
-83.63827864350283
 30
0.0
 10
127.8968004886057
 20
-83.63157031413125
 30
0.0
 10
127.9450023765235
 20
-83.64257871121657
 30
0.0
 10
127.9317524319492
 20
-83.58909031817055
 30
0.0
 10
127.9406046484158
 20
-83.53405851270998
 30
0.0
 10
127.9363650555904
 20
-83.4403552608798
 30
0.0
 10
127.9388436000899
 20
-83.34495952595555
 30
0.0
 10
127.9345891225679
 20
-83.25098612830702
 30
0.0
 10
127.9434771185465
 20
-83.19660372376077
 30
0.0
 10
127.9301929929564
 20
-83.14221437122629
 30
0.0
 10
127.9769071796727
 20
-83.15613218478734
 30
0.0
 10
128.0198207065356
 20
-83.15351557440047
 30
0.0
 10
128.0860395976304
 20
-83.15807012363334
 30
0.0
 10
128.1268294791417
 20
-83.1667727267993
 30
0.0
 10
128.1780098210437
 20
-83.15923634923894
 30
0.0
 10
128.1508673006819
 20
-83.20105464590803
 30
0.0
 10
128.1058048575326
 20
-83.19170442741492
 30
0.0
 10
128.1197017564669
 20
-83.2561422744225
 30
0.0
 10
128.1113366951273
 20
-83.32077215186689
 30
0.0
 10
128.1158584698017
 20
-83.41926293620202
 30
0.0
 10
128.1109693830786
 20
-83.51859501971518
 30
0.0
 10
128.12052115117
 20
-83.5816231926112
 30
0.0
 10
128.1054713974819
 20
-83.64491423314301
 30
0.0
 10
128.1704111976827
 20
-83.62940361869818
 30
0.0
 10
128.2371198919116
 20
-83.63956047116274
 30
0.0
 10
128.3496387990446
 20
-83.63466634714723
 30
0.0
 10
128.4645187968572
 20
-83.63764230081301
 30
0.0
 10
128.5774824519366
 20
-83.632337706291
 30
0.0
 10
128.6431220117296
 20
-83.64348128341994
 30
0.0
 10
128.7071229210672
 20
-83.62710902494231
 30
0.0
 10
128.6958095408808
 20
-83.67693744908814
 30
0.0
 10
128.7030292391129
 20
-83.72038719601967
 30
0.0
 10
128.6958095130888
 20
-83.76383689226645
 30
0.0
 10
128.7071229695613
 20
-83.81366539617211
 30
0.0
 10
128.643121611859
 20
-83.79729268722727
 30
0.0
 10
128.5774873760078
 20
-83.808441631525
 30
0.0
 10
128.4644926836949
 20
-83.80310577607233
 30
0.0
 10
128.3497409068262
 20
-83.80621089150273
 30
0.0
 10
128.236813620648
 20
-83.80090540131494
 30
0.0
 10
128.1710173423203
 20
-83.81198134794496
 30
0.0
 10
128.1071050494977
 20
-83.7956783696647
 30
0.0
 10
128.1190967684745
 20
-83.85031910418348
 30
0.0
 10
128.1117057132624
 20
-83.90601139766245
 30
0.0
 10
128.1147637361602
 20
-83.99805745673518
 30
0.0
 10
128.1148375305302
 20
-84.0927632494099
 30
0.0
 10
128.1115266097979
 20
-84.18502651911824
 30
0.0
 10
128.1194458509522
 20
-84.2401966607795
 30
0.0
 10
128.1070029131236
 20
-84.29397265713952
 30
0.0
 10
128.164406907125
 20
-84.28001665951311
 30
0.0
 10
128.2249660660002
 20
-84.28943976929861
 30
0.0
 10
128.33036333747
 20
-84.28512548885384
 30
0.0
 10
128.4459246590241
 20
-84.28619930202058
 30
0.0
 10
128.5614641397416
 20
-84.28729468913096
 30
0.0
 10
128.666913365046
 20
-84.2829290904346
 30
0.0
 10
128.7273632991423
 20
-84.29246008783416
 30
0.0
 10
128.7847790258729
 20
-84.27838145207711
 30
0.0
 10
128.7732726396328
 20
-84.32748281548409
 30
0.0
 10
128.7792519301369
 20
-84.36890776795441
 30
0.0
 10
128.7775263570421
 20
-84.41803756847393
 30
0.0
 10
128.777645264259
 20
-84.44601006366481
 30
0.0
 10
128.7776824211452
 20
-84.45475146618139
 30
0.0
 11
127.6112657481228
 21
-83.63611299416384
 31
0.0
 11
127.63543886479
 21
-83.63611299416382
 31
0.0
 11
127.6958716564582
 21
-83.63611299416384
 31
0.0
 11
127.7744342856267
 21
-83.63611299416382
 31
0.0
 11
127.8529969147952
 21
-83.63611299416384
 31
0.0
 11
127.9134297064633
 21
-83.63611299416382
 31
0.0
 11
127.9376028231306
 21
-83.63611299416384
 31
0.0
 11
127.9376028231306
 21
-83.60913822194026
 31
0.0
 11
127.9376028231306
 21
-83.5395717041005
 31
0.0
 11
127.9376028231306
 21
-83.44445013889103
 31
0.0
 11
127.9376028231306
 21
-83.34081022455834
 31
0.0
 11
127.9376028231306
 21
-83.24568865934887
 31
0.0
 11
127.9376028231306
 21
-83.1761221415091
 31
0.0
 11
127.9376028231306
 21
-83.14914736928553
 31
0.0
 11
127.9615360124511
 21
-83.1508222170629
 31
0.0
 11
128.0186074639077
 21
-83.15481608483968
 31
0.0
 11
128.0867250027429
 21
-83.15958295928293
 31
0.0
 11
128.1437964541995
 21
-83.16357682705973
 31
0.0
 11
128.16772964352
 21
-83.16525167483708
 31
0.0
 11
128.1529925250848
 21
-83.18899141441449
 31
0.0
 11
128.1141592769595
 21
-83.20271667482777
 31
0.0
 11
128.1141592769595
 21
-83.23482010588968
 31
0.0
 11
128.1141592769595
 21
-83.31507868354453
 31
0.0
 11
128.1141592769595
 21
-83.4194148344958
 31
0.0
 11
128.1141592769595
 21
-83.5237509854471
 31
0.0
 11
128.1141592769595
 21
-83.6040095631019
 31
0.0
 11
128.1141592769595
 21
-83.63611299416384
 31
0.0
 11
128.1466159630443
 21
-83.63611299416384
 31
0.0
 11
128.2303200482104
 21
-83.63611299416384
 31
0.0
 11
128.3447725728253
 21
-83.63611299416384
 31
0.0
 11
128.4694745772565
 21
-83.63611299416384
 31
0.0
 11
128.5839271018714
 21
-83.63611299416384
 31
0.0
 11
128.6676311870375
 21
-83.63611299416382
 31
0.0
 11
128.7000878731223
 21
-83.63611299416384
 31
0.0
 11
128.7000878731223
 21
-83.66244868209128
 31
0.0
 11
128.7000878731223
 21
-83.72038719553164
 31
0.0
 11
128.7000878731223
 21
-83.778325708972
 31
0.0
 11
128.7000878731223
 21
-83.80466139689945
 31
0.0
 11
128.6676311870375
 21
-83.80466139689945
 31
0.0
 11
128.5839271018714
 21
-83.80466139689943
 31
0.0
 11
128.4694745772565
 21
-83.80466139689945
 31
0.0
 11
128.3447725728253
 21
-83.80466139689945
 31
0.0
 11
128.2303200482104
 21
-83.80466139689943
 31
0.0
 11
128.1466159630443
 21
-83.80466139689945
 31
0.0
 11
128.1141592769595
 21
-83.80466139689945
 31
0.0
 11
128.1141592769595
 21
-83.83133571662066
 31
0.0
 11
128.1141592769595
 21
-83.90012738327013
 31
0.0
 11
128.1141592769595
 21
-83.99418945807655
 31
0.0
 11
128.1141592769595
 21
-84.09667500226863
 31
0.0
 11
128.1141592769595
 21
-84.19073707707503
 31
0.0
 11
128.1141592769595
 21
-84.2595287437245
 31
0.0
 11
128.1141592769595
 21
-84.28620306344573
 31
0.0
 11
128.1426700370612
 21
-84.28620306344573
 31
0.0
 11
128.2178347682385
 21
-84.28620306344573
 31
0.0
 11
128.3241021467995
 21
-84.28620306344571
 31
0.0
 11
128.4459208490524
 21
-84.28620306344573
 31
0.0
 11
128.5677395513052
 21
-84.28620306344573
 31
0.0
 11
128.6740069298662
 21
-84.28620306344573
 31
0.0
 11
128.7491716610435
 21
-84.28620306344573
 31
0.0
 11
128.7776824211452
 21
-84.28620306344573
 31
0.0
 11
128.7776824211452
 21
-84.31253875137318
 31
0.0
 11
128.7776824211452
 21
-84.37047726481356
 31
0.0
 11
128.7776824211452
 21
-84.42841577825395
 31
0.0
 11
128.7776824211452
 21
-84.45475146618139
 31
0.0
  0
SPLINE
  5
A6
102
{ACAD_REACTORS
330
C3
102
}
330
48
100
AcDbEntity
  8
_U_30EC_U_30A4_U_30E4_U_30FC_1
  6
Continuous
 62
     2
100
AcDbSpline
210
0.0
220
0.0
230
1.0
 70
     8
 71
     3
 72
    62
 73
    58
 74
    56
 42
0.000000001
 43
0.0000000001
 44
0.00000001
 40
0.0
 40
0.0
 40
0.0
 40
0.0
 40
0.0598250028308485
 40
0.2024846486897047
 40
0.3727558389220178
 40
0.5154154847934933
 40
0.5752404975784202
 40
0.9332326775485807
 40
1.290451762839338
 40
1.602077253145677
 40
1.699931634111909
 40
1.799359756424828
 40
2.270120149656891
 40
2.80466192846134
 40
2.882342287383037
 40
3.076543185718902
 40
3.32900435483536
 40
3.581465524568185
 40
3.775666424543471
 40
3.853346784558096
 40
3.89912067959487
 40
3.984129341791854
 40
4.029903236817174
 40
4.105797496059322
 40
4.295533144152313
 40
4.542189486611545
 40
4.788845828875478
 40
4.978581476409883
 40
5.054475735244123
 40
5.621734664339133
 40
6.13086724203718
 40
6.225249780948368
 40
6.318913039727036
 40
6.663579954558577
 40
7.0474989002244
 40
7.435230791575354
 40
7.498943906667766
 40
7.65087518120976
 40
7.832212509001271
 40
7.984143783696671
 40
8.047856898902797
 40
8.091554632732315
 40
8.172707566963954
 40
8.21640530076768
 40
8.28902178216055
 40
8.462184160756923
 40
8.668861838005046
 40
8.842024215263596
 40
8.91464069547482
 40
8.989881580861027
 40
9.15541152882695
 40
9.32094147774372
 40
9.39618235248698
 40
9.454709011143498
 40
9.583467660170475
 40
9.712226309012697
 40
9.770752957989194
 40
9.770752957989194
 40
9.770752957989194
 40
9.770752957989194
 10
128.7776824211452
 20
-84.45475146618139
 30
0.0
 10
128.7577300691242
 20
-84.4547455924542
 30
0.0
 10
128.6901990236084
 20
-84.45472571007927
 30
0.0
 10
128.5665564681408
 20
-84.45506072293765
 30
0.0
 10
128.4118132669676
 20
-84.45347761063576
 30
0.0
 10
128.2952302002099
 20
-84.45769355953594
 30
0.0
 10
128.0805895153861
 20
-84.44240229482465
 30
0.0
 10
128.4773900926848
 20
-84.80256713527895
 30
0.0
 10
128.5200608588887
 20
-85.01944931416922
 30
0.0
 10
128.944411466623
 20
-85.20130372302641
 30
0.0
 10
128.7694774015693
 20
-85.30470238246018
 30
0.0
 10
128.6449476444703
 20
-85.51623911601368
 30
0.0
 10
128.3921229755562
 20
-85.0464935381253
 30
0.0
 10
128.1052555413244
 20
-84.39943917829565
 30
0.0
 10
128.116128844628
 20
-84.70672762659396
 30
0.0
 10
128.1137845297578
 20
-84.87166817842308
 30
0.0
 10
128.111604864603
 20
-85.10575764102396
 30
0.0
 10
128.1235726915965
 20
-85.34957362392306
 30
0.0
 10
128.0942937260249
 20
-85.49599637953104
 30
0.0
 10
128.1369475145089
 20
-85.64341944639553
 30
0.0
 10
128.0494766525258
 20
-85.6276963750787
 30
0.0
 10
128.0023480126363
 20
-85.62761131270634
 30
0.0
 10
127.9153925727332
 20
-85.64346009331183
 30
0.0
 10
127.9568426541342
 20
-85.49927663391324
 30
0.0
 10
127.9284827523904
 20
-85.35600382115636
 30
0.0
 10
127.9400926294919
 20
-85.11780487448826
 30
0.0
 10
127.9379128167891
 20
-84.88938199573742
 30
0.0
 10
127.9358063647613
 20
-84.72749705438093
 30
0.0
 10
127.9462987957943
 20
-84.41301725480344
 30
0.0
 10
127.6383915772513
 20
-85.10225963941649
 30
0.0
 10
127.3310210787074
 20
-85.57978684571046
 30
0.0
 10
127.2106319585894
 20
-85.35714322176662
 30
0.0
 10
127.0329560430342
 20
-85.2444439985852
 30
0.0
 10
127.5108278882513
 20
-85.06907291348628
 30
0.0
 10
127.5608911576826
 20
-84.83363505562059
 30
0.0
 10
127.9838752141335
 20
-84.44132445469475
 30
0.0
 10
127.753170679316
 20
-84.45800127785029
 30
0.0
 10
127.630463837896
 20
-84.45185915865318
 30
0.0
 10
127.458043561528
 20
-84.46142612114517
 30
0.0
 10
127.3468177214068
 20
-84.44006616324424
 30
0.0
 10
127.2280732147067
 20
-84.47319169456671
 30
0.0
 10
127.2438122226305
 20
-84.39251534207206
 30
0.0
 10
127.2433503453381
 20
-84.34810020523236
 30
0.0
 10
127.228283440955
 20
-84.26488353035556
 30
0.0
 10
127.3627333455063
 20
-84.30392782830212
 30
0.0
 10
127.4874708065365
 20
-84.27715705485667
 30
0.0
 10
127.6883707756899
 20
-84.29391485770034
 30
0.0
 10
127.8176493468972
 20
-84.27251208901086
 30
0.0
 10
127.9583372447914
 20
-84.3058665596067
 30
0.0
 10
127.9235879972234
 20
-84.16803559029022
 30
0.0
 10
127.9477138186332
 20
-84.04492177464608
 30
0.0
 10
127.9222038702012
 20
-83.92431379143757
 30
0.0
 10
127.9588203666303
 20
-83.78915569672596
 30
0.0
 10
127.8466369547389
 20
-83.81360889032197
 30
0.0
 10
127.7535308976755
 20
-83.8014768497207
 30
0.0
 10
127.6446500099438
 20
-83.80497804744093
 30
0.0
 10
127.5824650160583
 20
-83.80473678862488
 30
0.0
 10
127.5630322076865
 20
-83.80466139689945
 30
0.0
 11
128.7776824211452
 21
-84.45475146618139
 31
0.0
 11
128.7178574083601
 21
-84.45475146618139
 31
0.0
 11
128.5751977624879
 21
-84.45475146618138
 31
0.0
 11
128.4049265722533
 21
-84.45475146618139
 31
0.0
 11
128.2622669263811
 21
-84.45475146618139
 31
0.0
 11
128.202441913596
 21
-84.45475146618139
 31
0.0
 11
128.3934913274462
 21
-84.75750306847198
 31
0.0
 11
128.6196225305249
 21
-85.03403544237405
 31
0.0
 11
128.849947869299
 21
-85.24394181320632
 31
0.0
 11
128.7776548850323
 21
-85.30989031145373
 31
0.0
 11
128.7134316922262
 21
-85.38579375761529
 31
0.0
 11
128.3987770735177
 21
-85.03563976464726
 31
0.0
 11
128.1141592769595
 21
-84.58317139670488
 31
0.0
 11
128.1141592769595
 21
-84.66085175676776
 31
0.0
 11
128.1141592769595
 21
-84.85505265692497
 31
0.0
 11
128.1141592769595
 21
-85.10751382712932
 31
0.0
 11
128.1141592769595
 21
-85.3599749973337
 31
0.0
 11
128.1141592769595
 21
-85.5541758974909
 31
0.0
 11
128.1141592769595
 21
-85.63185625755378
 31
0.0
 11
128.0683853815224
 21
-85.63185625755378
 31
0.0
 11
127.9833767185677
 21
-85.63185625755378
 31
0.0
 11
127.9376028231306
 21
-85.63185625755378
 31
0.0
 11
127.9376028231306
 21
-85.5559619983135
 31
0.0
 11
127.9376028231306
 21
-85.36622635021277
 31
0.0
 11
127.9376028231306
 21
-85.11957000768186
 31
0.0
 11
127.9376028231306
 21
-84.87291366515095
 31
0.0
 11
127.9376028231306
 21
-84.68317801705022
 31
0.0
 11
127.9376028231306
 21
-84.60728375780994
 31
0.0
 11
127.6242578918886
 21
-85.08014488616396
 31
0.0
 11
127.2607281181767
 21
-85.43660257704707
 31
0.0
 11
127.2028879981247
 21
-85.36201984269067
 31
0.0
 11
127.1349804824961
 21
-85.29751111874847
 31
0.0
 11
127.4005674417938
 21
-85.077832150182
 31
0.0
 11
127.648871749168
 21
-84.78502038842392
 31
0.0
 11
127.8519935324879
 21
-84.45475146618139
 31
0.0
 11
127.788280417234
 21
-84.4547514661814
 31
0.0
 11
127.6363491423978
 21
-84.45475146618139
 31
0.0
 11
127.4550118143675
 21
-84.4547514661814
 31
0.0
 11
127.3030805395312
 21
-84.45475146618139
 31
0.0
 11
127.2393674242773
 21
-84.45475146618139
 31
0.0
 11
127.2393674242773
 21
-84.41105373213881
 31
0.0
 11
127.2393674242773
 21
-84.3299007974883
 31
0.0
 11
127.2393674242773
 21
-84.28620306344573
 31
0.0
 11
127.311983905758
 21
-84.28620306344574
 31
0.0
 11
127.4851462846737
 21
-84.28620306344573
 31
0.0
 11
127.6918239627342
 21
-84.28620306344573
 31
0.0
 11
127.8649863416499
 21
-84.28620306344573
 31
0.0
 11
127.9376028231306
 21
-84.28620306344573
 31
0.0
 11
127.9376028231306
 21
-84.21096217804786
 31
0.0
 11
127.9376028231306
 21
-84.04543223017258
 31
0.0
 11
127.9376028231306
 21
-83.87990228229731
 31
0.0
 11
127.9376028231306
 21
-83.80466139689945
 31
0.0
 11
127.8790761644675
 21
-83.80466139689945
 31
0.0
 11
127.7503175154086
 21
-83.80466139689945
 31
0.0
 11
127.6215588663496
 21
-83.80466139689945
 31
0.0
 11
127.5630322076865
 21
-83.80466139689945
 31
0.0
  0
SPLINE
  5
A7
102
{ACAD_REACTORS
330
C4
102
}
330
48
100
AcDbEntity
  8
_U_30EC_U_30A4_U_30E4_U_30FC_1
  6
Continuous
 62
     2
100
AcDbSpline
210
0.0
220
0.0
230
1.0
 70
    11
 71
     3
 72
   124
 73
   120
 74
   118
 42
0.000000001
 43
0.0000000001
 44
0.00000001
 40
0.0
 40
0.0
 40
0.0
 40
0.0
 40
0.027818722962451
 40
0.1011590162384554
 40
0.2048470170590523
 40
0.323708871655953
 40
0.4425707262522568
 40
0.5462587270700116
 40
0.619599020331265
 40
0.6474177522579513
 40
0.675006073611613
 40
0.735700385524354
 40
0.7963946998055327
 40
0.8239830245572655
 40
0.8540933811103748
 40
0.937339662940986
 40
1.063094687343352
 40
1.22073126863819
 40
1.399622220914893
 40
1.589140358637878
 40
1.778658496423987
 40
1.957549448940683
 40
2.115186030873304
 40
2.240941056914637
 40
2.324187341760678
 40
2.354297700109556
 40
2.381886024672071
 40
2.442580338710656
 40
2.503274652750677
 40
2.530862977314784
 40
2.560983949278708
 40
2.640393784453111
 40
2.752662861759277
 40
2.881361560118294
 40
3.010060258455341
 40
3.122329335705516
 40
3.20173917081813
 40
3.231860142753491
 40
3.264298024030553
 40
3.35234370177841
 40
3.482095226868922
 40
3.639650650173196
 40
3.811108022565649
 40
3.982565394928145
 40
4.140120818152739
 40
4.269872343141444
 40
4.357918020802502
 40
4.390355902044136
 40
4.423256253992705
 40
4.508104530073227
 40
4.624121560636966
 40
4.750528176031723
 40
4.866545206602169
 40
4.951393482692127
 40
4.984293834645528
 40
5.01145083324245
 40
5.071196230152226
 40
5.130941627057298
 40
5.158098625648962
 40
5.190998977601624
 40
5.27584725368945
 40
5.391864284256912
 40
5.518270899648457
 40
5.63428793020944
 40
5.719136206288113
 40
5.752036558236029
 40
5.782130946283062
 40
5.86278390622924
 40
5.979550131775086
 40
6.117984316640517
 40
6.263641154588059
 40
6.402075339414254
 40
6.518841564908059
 40
6.599494524815641
 40
6.629588912848875
 40
6.654403028226452
 40
6.713575149488247
 40
6.784199939329622
 40
6.843372060493724
 40
6.868186175802969
 40
6.896246243202055
 40
6.939586233758529
 40
6.967846564565161
 40
7.043584251090106
 40
7.153234334451948
 40
7.283231855734694
 40
7.420011856035725
 40
7.550009376580103
 40
7.659659458835502
 40
7.735397144417487
 40
7.763657474851666
 40
7.796409728011323
 40
7.880876065096597
 40
7.996370852465983
 40
8.122208446418849
 40
8.237703224799471
 40
8.322169562011194
 40
8.354921815206179
 40
8.382078813307952
 40
8.441824209207265
 40
8.501569605240416
 40
8.528726603485989
 40
8.561478856696038
 40
8.645945193878088
 40
8.761439980865628
 40
8.887277580764742
 40
9.002772362001263
 40
9.087238696661455
 40
9.119990949235937
 40
9.152428830613626
 40
9.240474508638851
 40
9.370226034149805
 40
9.527781457984684
 40
9.699238830981667
 40
9.870696203978877
 40
10.02825162781431
 40
10.15800315332592
 40
10.24604883135146
 40
10.27848670378549
 40
10.27848670378549
 40
10.27848670378549
 40
10.27848670378549
 10
137.0076780084002
 20
-85.38044917428333
 30
0.0
 10
137.0169507257143
 20
-85.38044936302816
 30
0.0
 10
137.0506697056479
 20
-85.38045003937377
 30
0.0
 10
137.1189659332085
 20
-85.3804362757078
 30
0.0
 10
137.2175094231198
 20
-85.38052210594547
 30
0.0
 10
137.3317018984431
 20
-85.38013679201838
 30
0.0
 10
137.4440846936691
 20
-85.38154598916543
 30
0.0
 10
137.5469329119738
 20
-85.37736317391847
 30
0.0
 10
137.6061792394468
 20
-85.3863234556211
 30
0.0
 10
137.6626218456653
 20
-85.37291000288027
 30
0.0
 10
137.6501208106575
 20
-85.4236823620073
 30
0.0
 10
137.6584502155322
 20
-85.46866113875018
 30
0.0
 10
137.650312336074
 20
-85.51398681823606
 30
0.0
 10
137.6625481734077
 20
-85.56523502405621
 30
0.0
 10
137.6002726009954
 20
-85.5500747944882
 30
0.0
 10
137.5315465546487
 20
-85.56095684103343
 30
0.0
 10
137.4037709269211
 20
-85.55544130066122
 30
0.0
 10
137.2517937031262
 20
-85.55754583560386
 30
0.0
 10
137.0757648492142
 20
-85.55684432225621
 30
0.0
 10
136.8899384453906
 20
-85.55710197282795
 30
0.0
 10
136.7041119956795
 20
-85.55684429669492
 30
0.0
 10
136.5280832661787
 20
-85.55754592966355
 30
0.0
 10
136.3761056673814
 20
-85.555441025841
 30
0.0
 10
136.2483310184173
 20
-85.5609575404645
 30
0.0
 10
136.1796030356199
 20
-85.5500735768815
 30
0.0
 10
136.1173301562502
 20
-85.56523648129883
 30
0.0
 10
136.1295568809636
 20
-85.51397924008918
 30
0.0
 10
136.1214956982216
 20
-85.46872961541666
 30
0.0
 10
136.1295628329511
 20
-85.42349076858767
 30
0.0
 10
136.1173191006702
 20
-85.37221257904133
 30
0.0
 10
136.1779969640316
 20
-85.38705857450957
 30
0.0
 10
136.2417763265354
 20
-85.37698986643355
 30
0.0
 10
136.3532266873122
 20
-85.3816079060209
 30
0.0
 10
136.4752485963442
 20
-85.38042105908619
 30
0.0
 10
136.5974490657443
 20
-85.37939570913456
 30
0.0
 10
136.708474680701
 20
-85.38362959190684
 30
0.0
 10
136.7731469933577
 20
-85.37436850292356
 30
0.0
 10
136.834611533012
 20
-85.38851011764406
 30
0.0
 10
136.8185018120956
 20
-85.32219906929573
 30
0.0
 10
136.8297932846977
 20
-85.25007644692113
 30
0.0
 10
136.8242353342179
 20
-85.11941673925804
 30
0.0
 10
136.8262987581309
 20
-84.96848111105848
 30
0.0
 10
136.8255119646913
 20
-84.80119561706205
 30
0.0
 10
136.8262797735246
 20
-84.63394324481789
 30
0.0
 10
136.8242991305248
 20
-84.48292145544178
 30
0.0
 10
136.8296258676239
 20
-84.35249365261095
 30
0.0
 10
136.8188053908044
 20
-84.27989992208191
 30
0.0
 10
136.8345278949494
 20
-84.21304965377291
 30
0.0
 10
136.7687660652109
 20
-84.22874922323265
 30
0.0
 10
136.7011320350383
 20
-84.218461917301
 30
0.0
 10
136.5870837813429
 20
-84.22341647966967
 30
0.0
 10
136.4706195194522
 20
-84.22041306783613
 30
0.0
 10
136.3561506641095
 20
-84.225751316707
 30
0.0
 10
136.2895277177432
 20
-84.21454166739268
 30
0.0
 10
136.2245722234804
 20
-84.23106302149077
 30
0.0
 10
136.2362942278327
 20
-84.17981714337031
 30
0.0
 10
136.228778270874
 20
-84.1350510103
 30
0.0
 10
136.2362942398454
 20
-84.09028489916128
 30
0.0
 10
136.2245722024966
 20
-84.03903898684351
 30
0.0
 10
136.2895278858819
 20
-84.05556053047272
 30
0.0
 10
136.356148585944
 20
-84.04434863440144
 30
0.0
 10
136.4706305377682
 20
-84.04969998103425
 30
0.0
 10
136.5870406956581
 20
-84.04664246042972
 30
0.0
 10
136.701261269426
 20
-84.05176935803385
 30
0.0
 10
136.7685102958846
 20
-84.04109701458486
 30
0.0
 10
136.8338278461057
 20
-84.05713352145017
 30
0.0
 10
136.8196343968172
 20
-83.99505749064035
 30
0.0
 10
136.8291011982614
 20
-83.92868673185329
 30
0.0
 10
136.8245221523704
 20
-83.81215462072124
 30
0.0
 10
136.8262649075567
 20
-83.68028749791716
 30
0.0
 10
136.825250401501
 20
-83.53839474663815
 30
0.0
 10
136.8272143863991
 20
-83.40686384111508
 30
0.0
 10
136.821962107347
 20
-83.28930857531088
 30
0.0
 10
136.8328361283093
 20
-83.22507645812505
 30
0.0
 10
136.8174489161472
 20
-83.16346632269043
 30
0.0
 10
136.8662544057419
 20
-83.17753027431982
 30
0.0
 10
136.9108948084344
 20
-83.17500692738773
 30
0.0
 10
136.9793596466362
 20
-83.17942637412379
 30
0.0
 10
137.0214058688722
 20
-83.1884240927006
 30
0.0
 10
137.0742497278395
 20
-83.18043719947578
 30
0.0
 10
137.0461987521633
 20
-83.22341517202422
 30
0.0
 10
137.0004094768213
 20
-83.21195882770247
 30
0.0
 10
137.0124491592884
 20
-83.27281914808955
 30
0.0
 10
137.005103859026
 20
-83.33686135345312
 30
0.0
 10
137.0086148345781
 20
-83.44546065950179
 30
0.0
 10
137.0074759279792
 20
-83.56961115669336
 30
0.0
 10
137.0074127299882
 20
-83.70265714984212
 30
0.0
 10
137.0087825486486
 20
-83.82658053564529
 30
0.0
 10
137.0046591320933
 20
-83.93587096964752
 30
0.0
 10
137.0132715623183
 20
-83.99846854719922
 30
0.0
 10
137.0001709974021
 20
-84.05715301517724
 30
0.0
 10
137.0648836847817
 20
-84.04093321003187
 30
0.0
 10
137.1315358472774
 20
-84.05185174430781
 30
0.0
 10
137.2453732060721
 20
-84.0466169464033
 30
0.0
 10
137.3612211641716
 20
-84.04969887297182
 30
0.0
 10
137.4751876782899
 20
-84.04437175001578
 30
0.0
 10
137.5415293537718
 20
-84.05551226647543
 30
0.0
 10
137.6062141045099
 20
-84.03908455220915
 30
0.0
 10
137.5944773292341
 20
-84.09029509604039
 30
0.0
 10
137.602012058266
 20
-84.1350510069309
 30
0.0
 10
137.5944773511877
 20
-84.17980695804064
 30
0.0
 10
137.6062140660355
 20
-84.23101743943049
 30
0.0
 10
137.5415296594871
 20
-84.21459007019865
 30
0.0
 10
137.4751838950444
 20
-84.22572650366823
 30
0.0
 10
137.361241200663
 20
-84.22042318920967
 30
0.0
 10
137.2452948142674
 20
-84.22340670220547
 30
0.0
 10
137.1317709401741
 20
-84.21848542545698
 30
0.0
 10
137.0644183838422
 20
-84.22870347300567
 30
0.0
 10
136.9989237642114
 20
-84.21309438675276
 30
0.0
 10
137.0146666138836
 20
-84.27991582986674
 30
0.0
 10
137.0038228517832
 20
-84.35248376998211
 30
0.0
 10
137.009153414941
 20
-84.48293187199671
 30
0.0
 10
137.0072088671475
 20
-84.63390876628864
 30
0.0
 10
137.0078086202833
 20
-84.8013319087993
 30
0.0
 10
137.0076459079224
 20
-84.96799258695718
 30
0.0
 10
137.0076848007755
 20
-85.12095291892456
 30
0.0
 10
137.0076768932717
 20
-85.24606255828382
 30
0.0
 10
137.0076780902365
 20
-85.32947543822675
 30
0.0
 10
137.0076780235827
 20
-85.36963656532112
 30
0.0
 10
137.0076780084002
 20
-85.38044917428333
 30
0.0
 11
137.0076780084002
 21
-85.38044917428333
 31
0.0
 11
137.0354967403294
 21
-85.38044917428334
 31
0.0
 11
137.1088370335972
 21
-85.38044917428333
 31
0.0
 11
137.2125250344241
 21
-85.38044917428333
 31
0.0
 11
137.3313868890306
 21
-85.38044917428331
 31
0.0
 11
137.4502487436371
 21
-85.38044917428331
 31
0.0
 11
137.553936744464
 21
-85.38044917428333
 31
0.0
 11
137.6272770377318
 21
-85.38044917428333
 31
0.0
 11
137.655095769661
 21
-85.38044917428333
 31
0.0
 11
137.655095769661
 21
-85.4080374989292
 31
0.0
 11
137.655095769661
 21
-85.46873181315013
 31
0.0
 11
137.655095769661
 21
-85.52942612737105
 31
0.0
 11
137.655095769661
 21
-85.55701445201693
 31
0.0
 11
137.6249854113114
 21
-85.55701445201693
 31
0.0
 11
137.5417391264625
 21
-85.55701445201693
 31
0.0
 11
137.4159841004141
 21
-85.55701445201693
 31
0.0
 11
137.2583475184661
 21
-85.55701445201692
 31
0.0
 11
137.0794565659183
 21
-85.55701445201693
 31
0.0
 11
136.8899384280708
 21
-85.55701445201693
 31
0.0
 11
136.7004202902232
 21
-85.55701445201693
 31
0.0
 11
136.5215293376755
 21
-85.55701445201692
 31
0.0
 11
136.3638927557275
 21
-85.55701445201693
 31
0.0
 11
136.2381377296791
 21
-85.55701445201693
 31
0.0
 11
136.1548914448302
 21
-85.55701445201693
 31
0.0
 11
136.1247810864806
 21
-85.55701445201693
 31
0.0
 11
136.1247810864806
 21
-85.52942612737105
 31
0.0
 11
136.1247810864806
 21
-85.46873181315013
 31
0.0
 11
136.1247810864806
 21
-85.4080374989292
 31
0.0
 11
136.1247810864806
 21
-85.38044917428333
 31
0.0
 11
136.1549020584565
 21
-85.38044917428334
 31
0.0
 11
136.2343118936659
 21
-85.38044917428333
 31
0.0
 11
136.3465809710309
 21
-85.38044917428333
 31
0.0
 11
136.4752796694737
 21
-85.38044917428331
 31
0.0
 11
136.6039783679164
 21
-85.38044917428331
 31
0.0
 11
136.7162474452814
 21
-85.38044917428333
 31
0.0
 11
136.7956572804908
 21
-85.38044917428333
 31
0.0
 11
136.8257782524667
 21
-85.38044917428333
 31
0.0
 11
136.8257782524667
 21
-85.34801129290254
 31
0.0
 11
136.8257782524667
 21
-85.259965614869
 31
0.0
 11
136.8257782524667
 21
-85.13021408934588
 31
0.0
 11
136.8257782524667
 21
-84.97265866549637
 31
0.0
 11
136.8257782524667
 21
-84.80120129248367
 31
0.0
 11
136.8257782524667
 21
-84.62974391947097
 31
0.0
 11
136.8257782524667
 21
-84.47218849562145
 31
0.0
 11
136.8257782524667
 21
-84.34243697009833
 31
0.0
 11
136.8257782524667
 21
-84.25439129206478
 31
0.0
 11
136.8257782524667
 21
-84.221953410684
 31
0.0
 11
136.7928779005148
 21
-84.221953410684
 31
0.0
 11
136.7080296244281
 21
-84.22195341068402
 31
0.0
 11
136.5920125938607
 21
-84.221953410684
 31
0.0
 11
136.4656059784663
 21
-84.221953410684
 31
0.0
 11
136.3495889478989
 21
-84.22195341068401
 31
0.0
 11
136.2647406718123
 21
-84.221953410684
 31
0.0
 11
136.2318403198603
 21
-84.221953410684
 31
0.0
 11
136.2318403198603
 21
-84.19479641199287
 31
0.0
 11
136.2318403198603
 21
-84.1350510148724
 31
0.0
 11
136.2318403198603
 21
-84.07530561775192
 31
0.0
 11
136.2318403198603
 21
-84.0481486190608
 31
0.0
 11
136.2647406718123
 21
-84.04814861906078
 31
0.0
 11
136.3495889478989
 21
-84.0481486190608
 31
0.0
 11
136.4656059784663
 21
-84.0481486190608
 31
0.0
 11
136.5920125938607
 21
-84.04814861906081
 31
0.0
 11
136.7080296244281
 21
-84.0481486190608
 31
0.0
 11
136.7928779005147
 21
-84.04814861906078
 31
0.0
 11
136.8257782524667
 21
-84.0481486190608
 31
0.0
 11
136.8257782524667
 21
-84.0180542308272
 31
0.0
 11
136.8257782524667
 21
-83.93740127036115
 31
0.0
 11
136.8257782524667
 21
-83.82063504401482
 31
0.0
 11
136.8257782524667
 21
-83.68220085814026
 31
0.0
 11
136.8257782524667
 21
-83.53654401908966
 31
0.0
 11
136.8257782524667
 21
-83.39810983321512
 31
0.0
 11
136.8257782524667
 21
-83.28134360686876
 31
0.0
 11
136.8257782524667
 21
-83.20069064640272
 31
0.0
 11
136.8257782524667
 21
-83.17059625816913
 31
0.0
 11
136.8505357808237
 21
-83.17227110594648
 31
0.0
 11
136.9095729638289
 21
-83.17626497372325
 31
0.0
 11
136.9800366983834
 21
-83.1810318481665
 31
0.0
 11
137.0390738813885
 21
-83.18502571594325
 31
0.0
 11
137.0638314097455
 21
-83.1867005637206
 31
0.0
 11
137.048801974365
 21
-83.2103962060758
 31
0.0
 11
137.0076780084002
 21
-83.22407736926685
 31
0.0
 11
137.0076780084002
 21
-83.25233770019257
 31
0.0
 11
137.0076780084002
 21
-83.3280753870735
 31
0.0
 11
137.0076780084002
 21
-83.43772547106528
 31
0.0
 11
137.0076780084002
 21
-83.56772299332357
 31
0.0
 11
137.0076780084002
 21
-83.70450299500405
 31
0.0
 11
137.0076780084002
 21
-83.83450051726237
 31
0.0
 11
137.0076780084002
 21
-83.94415060125415
 31
0.0
 11
137.0076780084002
 21
-84.01988828813508
 31
0.0
 11
137.0076780084002
 21
-84.0481486190608
 31
0.0
 11
137.0404302615734
 21
-84.04814861906078
 31
0.0
 11
137.1248965987041
 21
-84.0481486190608
 31
0.0
 11
137.2403913862095
 21
-84.0481486190608
 31
0.0
 11
137.3662289905064
 21
-84.04814861906081
 31
0.0
 11
137.4817237780117
 21
-84.0481486190608
 31
0.0
 11
137.5661901151425
 21
-84.04814861906078
 31
0.0
 11
137.5989423683157
 21
-84.0481486190608
 31
0.0
 11
137.5989423683157
 21
-84.07530561775192
 31
0.0
 11
137.5989423683157
 21
-84.1350510148724
 31
0.0
 11
137.5989423683157
 21
-84.19479641199287
 31
0.0
 11
137.5989423683157
 21
-84.221953410684
 31
0.0
 11
137.5661901151425
 21
-84.22195341068398
 31
0.0
 11
137.4817237780117
 21
-84.22195341068398
 31
0.0
 11
137.3662289905064
 21
-84.221953410684
 31
0.0
 11
137.2403913862095
 21
-84.221953410684
 31
0.0
 11
137.1248965987041
 21
-84.221953410684
 31
0.0
 11
137.0404302615734
 21
-84.221953410684
 31
0.0
 11
137.0076780084002
 21
-84.221953410684
 31
0.0
 11
137.0076780084002
 21
-84.25439129206477
 31
0.0
 11
137.0076780084002
 21
-84.34243697009832
 31
0.0
 11
137.0076780084002
 21
-84.47218849562145
 31
0.0
 11
137.0076780084002
 21
-84.62974391947095
 31
0.0
 11
137.0076780084002
 21
-84.80120129248365
 31
0.0
 11
137.0076780084002
 21
-84.97265866549637
 31
0.0
 11
137.0076780084002
 21
-85.13021408934588
 31
0.0
 11
137.0076780084002
 21
-85.259965614869
 31
0.0
 11
137.0076780084002
 21
-85.34801129290254
 31
0.0
 11
137.0076780084002
 21
-85.38044917428333
 31
0.0
  0
SPLINE
  5
A8
102
{ACAD_REACTORS
330
C5
102
}
330
48
100
AcDbEntity
  8
_U_30EC_U_30A4_U_30E4_U_30FC_1
  6
Continuous
 62
     2
100
AcDbSpline
210
0.0
220
0.0
230
1.0
 70
    11
 71
     3
 72
   131
 73
   127
 74
   125
 42
0.000000001
 43
0.0000000001
 44
0.00000001
 40
0.0
 40
0.0
 40
0.0
 40
0.0
 40
0.0195577029826204
 40
0.0426490537460607
 40
0.2863607575855951
 40
0.5344948436188643
 40
0.7842238845572738
 40
0.8737315789466823
 40
0.9803832810312634
 40
1.092842274517009
 40
1.199761146656775
 40
1.289788768186478
 40
1.351573580786146
 40
1.3707271175614
 40
1.416400936017779
 40
1.470914848355936
 40
1.516588666791725
 40
1.535742203552803
 40
1.634216592293147
 40
1.760283341174991
 40
1.897966686682107
 40
2.031216387368907
 40
2.049689751137912
 40
2.101115601646846
 40
2.179502577739974
 40
2.278859318314083
 40
2.393194462258741
 40
2.516516648383849
 40
2.642834515405973
 40
2.766156701983483
 40
2.880491846754587
 40
2.979848588358657
 40
3.058235565443788
 40
3.109661416668949
 40
3.128134780704137
 40
3.146783742386454
 40
3.191254343315286
 40
3.244332157315917
 40
3.288802758225792
 40
3.307451719895035
 40
3.327717853844653
 40
3.383747753580003
 40
3.468388665924415
 40
3.57448783769869
 40
3.694892515728817
 40
3.822449946851954
 40
3.950007377920336
 40
4.070412055800425
 40
4.176511227367989
 40
4.261152139501426
 40
4.31718203907662
 40
4.33744817296455
 40
4.620011002696193
 40
4.885096638397505
 40
4.945373043518281
 40
5.0141077104886
 40
5.07048172765201
 40
5.319246955636534
 40
5.584812164506077
 40
5.859000912056899
 40
6.133746937542066
 40
6.401732212968842
 40
6.420736683995433
 40
6.472845717451055
 40
6.550702743894011
 40
6.646951193874191
 40
6.754234497930543
 40
6.865196086587293
 40
6.972479390357751
 40
7.068727839771913
 40
7.146584865450922
 40
7.198693898189152
 40
7.217698368905292
 40
7.234950401630773
 40
7.276089864269796
 40
7.325191803515924
 40
7.366331266090302
 40
7.383583298769654
 40
7.40277916349206
 40
7.453386443254491
 40
7.524934666445521
 40
7.606953361405804
 40
7.688972056428984
 40
7.760520279784235
 40
7.811127559734476
 40
7.830323424546126
 40
7.847844055299749
 40
7.894799345666787
 40
7.962779392744483
 40
8.04337429356055
 40
8.128174145149462
 40
8.208769044817235
 40
8.27674909037697
 40
8.323704379669525
 40
8.341225010056252
 40
8.358497614800429
 40
8.401679126686606
 40
8.457815092185607
 40
8.513951057728038
 40
8.557132569707965
 40
8.574405174505008
 40
8.602340668616353
 40
8.643455660539946
 40
8.663225271966628
 40
8.715345156564272
 40
8.789031889628607
 40
8.873502045520329
 40
8.957972194323947
 40
9.031658925567857
 40
9.083778811234541
 40
9.103548423003009
 40
9.119550083123574
 40
9.160817522379848
 40
9.217244429110213
 40
9.278724491644699
 40
9.335151398295483
 40
9.376418837357779
 40
9.392420497300566
 40
9.401196302734816
 40
9.417494229384264
 40
9.426270027749565
 40
9.440875075477576
 40
9.47570249699878
 40
9.517270709865942
 40
9.552098131994113
 40
9.566703169884319
 40
9.566703169884319
 40
9.566703169884319
 40
9.566703169884319
 10
136.2425206668098
 20
-83.72439563303062
 30
0.0
 10
136.238929761299
 20
-83.73001744111932
 30
0.0
 10
136.2310991643243
 20
-83.74227680394974
 30
0.0
 10
136.1384921494168
 20
-83.77853518773146
 30
0.0
 10
136.1142574752866
 20
-83.99306990601364
 30
0.0
 10
136.0113662365558
 20
-84.17258150304386
 30
0.0
 10
135.7475444883925
 20
-84.35839861015944
 30
0.0
 10
135.9100424088799
 20
-84.43496098248006
 30
0.0
 10
135.9862178280458
 20
-84.49598741618647
 30
0.0
 10
136.0747123592378
 20
-84.55939630269333
 30
0.0
 10
136.164488275273
 20
-84.61929800594528
 30
0.0
 10
136.2138770155665
 20
-84.6735327996488
 30
0.0
 10
136.3000660677001
 20
-84.70169194272258
 30
0.0
 10
136.2666213193848
 20
-84.73742125161277
 30
0.0
 10
136.246962368593
 20
-84.76905046822185
 30
0.0
 10
136.2174840737501
 20
-84.80979562018021
 30
0.0
 10
136.194394196565
 20
-84.83950771324447
 30
0.0
 10
136.1635158487976
 20
-84.89244012145596
 30
0.0
 10
136.0984145885359
 20
-84.76715099875182
 30
0.0
 10
136.0050952642034
 20
-84.71241534580156
 30
0.0
 10
135.9205588804757
 20
-84.65539010874748
 30
0.0
 10
135.7977450645361
 20
-84.49780147386569
 30
0.0
 10
135.801940336692
 20
-84.57419628047252
 30
0.0
 10
135.8006431172297
 20
-84.62094154652796
 30
0.0
 10
135.8013078967695
 20
-84.69870649001489
 30
0.0
 10
135.8010502506575
 20
-84.79553366489668
 30
0.0
 10
135.8011383759541
 20
-84.90805155735282
 30
0.0
 10
135.8011029821899
 20
-85.0293134886839
 30
0.0
 10
135.8011464277898
 20
-85.15368536955128
 30
0.0
 10
135.8010152462025
 20
-85.27487751182754
 30
0.0
 10
135.8014430081665
 20
-85.38764285894344
 30
0.0
 10
135.8001630721929
 20
-85.48372521045346
 30
0.0
 10
135.8034712370663
 20
-85.5634160834539
 30
0.0
 10
135.7970150259705
 20
-85.60640259025304
 30
0.0
 10
135.8061161225175
 20
-85.64500002442045
 30
0.0
 10
135.7702862859554
 20
-85.63644547090023
 30
0.0
 10
135.7370176334871
 20
-85.64112914828641
 30
0.0
 10
135.685951509566
 20
-85.64104136054307
 30
0.0
 10
135.6524676492432
 20
-85.63661004530272
 30
0.0
 10
135.6162537928373
 20
-85.64494640971576
 30
0.0
 10
135.6264735088285
 20
-85.60310157634807
 30
0.0
 10
135.6191440407393
 20
-85.55676873993912
 30
0.0
 10
135.6228585655722
 20
-85.47080603708075
 30
0.0
 10
135.6214433074516
 20
-85.36850292109239
 30
0.0
 10
135.6219058074258
 20
-85.25002210882577
 30
0.0
 10
135.621772620585
 20
-85.12497751660732
 30
0.0
 10
135.6217968429665
 20
-84.9997960670704
 30
0.0
 10
135.6218307445171
 20
-84.88168789435029
 30
0.0
 10
135.6217012812752
 20
-84.77826686104575
 30
0.0
 10
135.62204600687
 20
-84.6952339866042
 30
0.0
 10
135.621365079831
 20
-84.64312066292847
 30
0.0
 10
135.6249539120242
 20
-84.51542526992722
 30
0.0
 10
135.4081123906057
 20
-84.8140671799447
 30
0.0
 10
135.2276307441568
 20
-85.04191453302577
 30
0.0
 10
135.1745274815231
 20
-84.90081991524274
 30
0.0
 10
135.1455381652768
 20
-84.85129667253148
 30
0.0
 10
135.0451600582439
 20
-84.74813655023986
 30
0.0
 10
135.366008024288
 20
-84.66760399790307
 30
0.0
 10
135.4944849525049
 20
-84.4838915177766
 30
0.0
 10
135.7161406844978
 20
-84.27523439042325
 30
0.0
 10
135.8025177413689
 20
-84.10116223585754
 30
0.0
 10
136.0804346748692
 20
-83.8248838347157
 30
0.0
 10
135.9601200358903
 20
-83.82920875262978
 30
0.0
 10
135.9118149870968
 20
-83.82840578611535
 30
0.0
 10
135.8357329974523
 20
-83.82880852667509
 30
0.0
 10
135.7421962529369
 20
-83.82865159202478
 30
0.0
 10
135.6372547308176
 20
-83.82872932237868
 30
0.0
 10
135.5288840258337
 20
-83.82859970435537
 30
0.0
 10
135.4236406755516
 20
-83.82901041323396
 30
0.0
 10
135.3311190339032
 20
-83.827733611425
 30
0.0
 10
135.2523083320327
 20
-83.83114668279242
 30
0.0
 10
135.2094627084999
 20
-83.82432084777767
 30
0.0
 10
135.1704452106134
 20
-83.83390370612966
 30
0.0
 10
135.1781317791483
 20
-83.80034655248546
 30
0.0
 10
135.1740416923931
 20
-83.76931884491859
 30
0.0
 10
135.1740483888433
 20
-83.7221890554319
 30
0.0
 10
135.1781192244532
 20
-83.69114493167316
 30
0.0
 10
135.1704448094201
 20
-83.65753573178186
 30
0.0
 10
135.2089771925114
 20
-83.66707024393222
 30
0.0
 10
135.2496180534099
 20
-83.66057999316017
 30
0.0
 10
135.3206424370083
 20
-83.66355284163838
 30
0.0
 10
135.3984270669253
 20
-83.66280673414931
 30
0.0
 10
135.4762244766093
 20
-83.66207620769565
 30
0.0
 10
135.5472184609527
 20
-83.6650119929993
 30
0.0
 10
135.5879232311439
 20
-83.65859966041134
 30
0.0
 10
135.626480600953
 20
-83.66804910638089
 30
0.0
 10
135.6182295274546
 20
-83.63190742655307
 30
0.0
 10
135.6237299188978
 20
-83.59325597200862
 30
0.0
 10
135.6210706725782
 20
-83.52541906252253
 30
0.0
 10
135.6220767991153
 20
-83.4486379327535
 30
0.0
 10
135.6215130537939
 20
-83.36606041231332
 30
0.0
 10
135.6225667046212
 20
-83.2893810558421
 30
0.0
 10
135.619762838275
 20
-83.2212344403739
 30
0.0
 10
135.6255655240923
 20
-83.1832303500474
 30
0.0
 10
135.6170607070778
 20
-83.14696986736442
 30
0.0
 10
135.6510562752745
 20
-83.15699711042238
 30
0.0
 10
135.6849528202719
 20
-83.15382168000382
 30
0.0
 10
135.7381621579966
 20
-83.15946469173484
 30
0.0
 10
135.7915721094102
 20
-83.1602066037766
 30
0.0
 10
135.825086716911
 20
-83.16636211331115
 30
0.0
 10
135.8643038702658
 20
-83.16109405040494
 30
0.0
 10
135.8375216218111
 20
-83.20202054020604
 30
0.0
 10
135.7963063521343
 20
-83.19084230275976
 30
0.0
 10
135.8037594060492
 20
-83.23588378621965
 30
0.0
 10
135.7997180471804
 20
-83.28043156785948
 30
0.0
 10
135.8016666569259
 20
-83.35231862192384
 30
0.0
 10
135.8007317369377
 20
-83.43286804225318
 30
0.0
 10
135.8020059709648
 20
-83.51281439409094
 30
0.0
 10
135.7986996313483
 20
-83.58613597730908
 30
0.0
 10
135.8057058699579
 20
-83.62766791811521
 30
0.0
 10
135.7956392899745
 20
-83.66703016245978
 30
0.0
 10
135.828476732354
 20
-83.65987371383106
 30
0.0
 10
135.8619529816099
 20
-83.66428191676145
 30
0.0
 10
135.9170005995637
 20
-83.66237491466188
 30
0.0
 10
135.9744455114934
 20
-83.662700684068
 30
0.0
 10
136.0277978767928
 20
-83.6634912608101
 30
0.0
 10
136.0653493416258
 20
-83.6614147569601
 30
0.0
 10
136.0878125042856
 20
-83.66433096646985
 30
0.0
 10
136.100663059335
 20
-83.65882882170033
 30
0.0
 10
136.1113208205508
 20
-83.65654316616302
 30
0.0
 10
136.1241588169762
 20
-83.64960462226033
 30
0.0
 10
136.140094355269
 20
-83.66602388500425
 30
0.0
 10
136.1665576440511
 20
-83.67746312494637
 30
0.0
 10
136.1981757773377
 20
-83.698107469789
 30
0.0
 10
136.224220841177
 20
-83.71338565185796
 30
0.0
 10
136.2383470243593
 20
-83.72188458490905
 30
0.0
 10
136.2425206668098
 20
-83.72439563303062
 30
0.0
 11
136.2425206668098
 21
-83.72439563303062
 31
0.0
 11
136.2304942521862
 21
-83.73981863649901
 31
0.0
 11
136.2103914315185
 21
-83.75118028580172
 31
0.0
 11
136.1033938875433
 21
-83.97014814582931
 31
0.0
 11
135.9731992453944
 21
-84.18138233301929
 31
0.0
 11
135.825149288569
 21
-84.3824937578661
 31
0.0
 11
135.8989910773354
 21
-84.43308049878709
 31
0.0
 11
135.9860616831419
 21
-84.4946702316035
 31
0.0
 11
136.0772956270024
 21
-84.56042274219664
 31
0.0
 11
136.1636274299307
 21
-84.62349781644785
 31
0.0
 11
136.2359916129407
 21
-84.67705524023847
 31
0.0
 11
136.2853226970462
 21
-84.71425479944985
 31
0.0
 11
136.2741893221832
 21
-84.72984023944596
 31
0.0
 11
136.2476405052022
 21
-84.76700551943665
 31
0.0
 11
136.2159532075152
 21
-84.81136407942557
 31
0.0
 11
136.1894043905342
 21
-84.84852935941628
 31
0.0
 11
136.1782710156712
 21
-84.86411479941238
 31
0.0
 11
136.1061965882567
 21
-84.79701426123471
 31
0.0
 11
136.0107809505
 21
-84.71462080639421
 31
0.0
 11
135.9048216671789
 21
-84.62670417447173
 31
0.0
 11
135.8011163030709
 21
-84.54303410504822
 31
0.0
 11
135.8011163030709
 21
-84.56150746913227
 31
0.0
 11
135.8011163030709
 21
-84.61293332050134
 31
0.0
 11
135.8011163030709
 21
-84.69132029783091
 31
0.0
 11
135.8011163030709
 21
-84.7906770397964
 31
0.0
 11
135.8011163030709
 21
-84.90501218507329
 31
0.0
 11
135.8011163030709
 21
-85.028334372337
 31
0.0
 11
135.8011163030709
 21
-85.15465224026299
 31
0.0
 11
135.8011163030709
 21
-85.2779744275267
 31
0.0
 11
135.8011163030709
 21
-85.39230957280358
 31
0.0
 11
135.8011163030709
 21
-85.4916663147691
 31
0.0
 11
135.8011163030709
 21
-85.57005329209863
 31
0.0
 11
135.8011163030709
 21
-85.62147914346772
 31
0.0
 11
135.8011163030709
 21
-85.63995250755177
 31
0.0
 11
135.7824673413245
 21
-85.63995250755178
 31
0.0
 11
135.7379967402369
 21
-85.63995250755177
 31
0.0
 11
135.6849189260355
 21
-85.63995250755178
 31
0.0
 11
135.6404483249479
 21
-85.63995250755177
 31
0.0
 11
135.6217993632015
 21
-85.63995250755177
 31
0.0
 11
135.6217993632015
 21
-85.6196863735387
 31
0.0
 11
135.6217993632015
 21
-85.56365647362023
 31
0.0
 11
135.6217993632015
 21
-85.4790155609774
 31
0.0
 11
135.6217993632015
 21
-85.37291638879137
 31
0.0
 11
135.6217993632015
 21
-85.25251171024313
 31
0.0
 11
135.6217993632015
 21
-85.12495427851383
 31
0.0
 11
135.6217993632015
 21
-84.99739684678453
 31
0.0
 11
135.6217993632015
 21
-84.87699216823631
 31
0.0
 11
135.6217993632015
 21
-84.77089299605025
 31
0.0
 11
135.6217993632015
 21
-84.68625208340745
 31
0.0
 11
135.6217993632015
 21
-84.63022218348897
 31
0.0
 11
135.6217993632015
 21
-84.6099560494759
 31
0.0
 11
135.4138225369101
 21
-84.80123436540033
 31
0.0
 11
135.2018438878044
 21
-84.96040549383278
 31
0.0
 11
135.1750581534102
 21
-84.90640762861996
 31
0.0
 11
135.1393717934644
 21
-84.84766294242064
 31
0.0
 11
135.1054650013743
 21
-84.80262563276113
 31
0.0
 11
135.3085240261938
 21
-84.65892047613036
 31
0.0
 11
135.507348447788
 21
-84.48287011284101
 31
0.0
 11
135.6931993963798
 21
-84.28127920289141
 31
0.0
 11
135.8573380021923
 21
-84.06095240627981
 31
0.0
 11
135.9910253954483
 21
-83.82869438300455
 31
0.0
 11
135.9720209244101
 21
-83.82869438300455
 31
0.0
 11
135.9199118909181
 21
-83.82869438300455
 31
0.0
 11
135.8420548644066
 21
-83.82869438300455
 31
0.0
 11
135.7458064143098
 21
-83.82869438300455
 31
0.0
 11
135.6385231100616
 21
-83.82869438300455
 31
0.0
 11
135.5275615210964
 21
-83.82869438300455
 31
0.0
 11
135.4202782168483
 21
-83.82869438300455
 31
0.0
 11
135.3240297667514
 21
-83.82869438300455
 31
0.0
 11
135.2461727402399
 21
-83.82869438300455
 31
0.0
 11
135.194063706748
 21
-83.82869438300455
 31
0.0
 11
135.1750592357097
 21
-83.82869438300455
 31
0.0
 11
135.1750592357097
 21
-83.81144235023108
 31
0.0
 11
135.1750592357097
 21
-83.7703028874636
 31
0.0
 11
135.1750592357097
 21
-83.72120094803141
 31
0.0
 11
135.1750592357097
 21
-83.68006148526392
 31
0.0
 11
135.1750592357097
 21
-83.66280945249045
 31
0.0
 11
135.1942551005629
 21
-83.66280945249045
 31
0.0
 11
135.2448623806303
 21
-83.66280945249045
 31
0.0
 11
135.3164106041739
 21
-83.66280945249045
 31
0.0
 11
135.3984292994556
 21
-83.66280945249045
 31
0.0
 11
135.4804479947373
 21
-83.66280945249045
 31
0.0
 11
135.5519962182809
 21
-83.66280945249045
 31
0.0
 11
135.6026034983483
 21
-83.66280945249045
 31
0.0
 11
135.6217993632015
 21
-83.66280945249045
 31
0.0
 11
135.6217993632015
 21
-83.64528882158872
 31
0.0
 11
135.6217993632015
 21
-83.5983335307721
 31
0.0
 11
135.6217993632015
 21
-83.53035348287337
 31
0.0
 11
135.6217993632015
 21
-83.4497585807254
 31
0.0
 11
135.6217993632015
 21
-83.36495872716102
 31
0.0
 11
135.6217993632015
 21
-83.28436382501309
 31
0.0
 11
135.6217993632015
 21
-83.21638377711434
 31
0.0
 11
135.6217993632015
 21
-83.16942848629772
 31
0.0
 11
135.6217993632015
 21
-83.15190785539599
 31
0.0
 11
135.6390436631731
 21
-83.1528962864657
 31
0.0
 11
135.682154413102
 21
-83.15536736413998
 31
0.0
 11
135.7381983880096
 21
-83.15857976511654
 31
0.0
 11
135.7942423629173
 21
-83.1617921660931
 31
0.0
 11
135.8373531128462
 21
-83.16426324376738
 31
0.0
 11
135.8545974128178
 21
-83.16525167483708
 31
0.0
 11
135.8398727194471
 21
-83.18899141441449
 31
0.0
 11
135.8011163030709
 21
-83.20271667482777
 31
0.0
 11
135.8011163030709
 21
-83.22248628636797
 31
0.0
 11
135.8011163030709
 21
-83.27460617133757
 31
0.0
 11
135.8011163030709
 21
-83.34829290526011
 31
0.0
 11
135.8011163030709
 21
-83.43276306365911
 31
0.0
 11
135.8011163030709
 21
-83.51723322205811
 31
0.0
 11
135.8011163030709
 21
-83.59091995598067
 31
0.0
 11
135.8011163030709
 21
-83.64303984095025
 31
0.0
 11
135.8011163030709
 21
-83.66280945249045
 31
0.0
 11
135.8171179632555
 21
-83.66280945249044
 31
0.0
 11
135.8583854026789
 21
-83.66280945249044
 31
0.0
 11
135.9148123096456
 21
-83.66280945249044
 31
0.0
 11
135.97629237246
 21
-83.66280945249044
 31
0.0
 11
136.0327192794267
 21
-83.66280945249045
 31
0.0
 11
136.0739867188501
 21
-83.66280945249045
 31
0.0
 11
136.0899883790347
 21
-83.66280945249045
 31
0.0
 11
136.0983158942544
 21
-83.66004047358169
 31
0.0
 11
136.1137812796622
 21
-83.65489808417972
 31
0.0
 11
136.1221087948819
 21
-83.65212910527096
 31
0.0
 11
136.1346316295624
 21
-83.65964482415797
 31
0.0
 11
136.1644937738005
 21
-83.67756692304236
 31
0.0
 11
136.2001356878912
 21
-83.69895781525922
 31
0.0
 11
136.2299978321293
 21
-83.71687991414362
 31
0.0
 11
136.2425206668098
 21
-83.72439563303062
 31
0.0
  0
SPLINE
  5
A9
102
{ACAD_REACTORS
330
C6
102
}
330
48
100
AcDbEntity
  8
_U_30EC_U_30A4_U_30E4_U_30FC_1
  6
Continuous
 62
     2
100
AcDbSpline
210
0.0
220
0.0
230
1.0
 70
    11
 71
     3
 72
    91
 73
    87
 74
    85
 42
0.000000001
 43
0.0000000001
 44
0.00000001
 40
0.0
 40
0.0
 40
0.0
 40
0.0
 40
0.0267532254356701
 40
0.0856103386464049
 40
0.1444674521996638
 40
0.1712206856618657
 40
0.2039416005642678
 40
0.2955601971652626
 40
0.4362601844617344
 40
0.6162252844507676
 40
0.8256392189705124
 40
1.054685709844482
 40
1.293548478893602
 40
1.532411247938346
 40
1.761457738799639
 40
1.970871673298608
 40
2.150836773256803
 40
2.291536760495664
 40
2.3831553568368
 40
2.41587628410142
 40
2.442629517488062
 40
2.501486630949192
 40
2.560343744424363
 40
2.587096977826623
 40
2.617068194441051
 40
2.69924733675622
 40
2.822032643466504
 40
2.973822353258062
 40
3.143014704823504
 40
3.318007936880083
 40
3.487200288186945
 40
3.638989997548426
 40
3.761775303794953
 40
3.843954445753259
 40
3.873925662229984
 40
3.89081277350069
 40
3.907699884771868
 40
3.937960767857435
 40
3.980983618142413
 40
4.199085915228585
 40
4.439444339237396
 40
4.677588241261035
 40
5.050698317837921
 40
5.448212454763335
 40
5.855291218044946
 40
6.138575438885696
 40
6.417434507584532
 40
6.444551104394194
 40
6.504207617363521
 40
6.563864130314896
 40
6.590980727104458
 40
6.848609460381883
 40
7.109611990668822
 40
7.352910904446472
 40
7.557830220705892
 40
7.587518925913833
 40
7.652834077376285
 40
7.718149228846241
 40
7.747837934062541
 40
7.854880190301479
 40
7.976511257404012
 40
8.369487896592842
 40
8.75751495922422
 40
9.126072419331656
 40
9.460639380392747
 40
9.74669559303646
 40
9.77756994311923
 40
9.807050320932326
 40
9.830377336129452
 40
9.886003295436527
 40
9.952395569430443
 40
10.00802152870681
 40
10.03134854388273
 40
10.21356951009649
 40
10.42203479292926
 40
10.66154556731122
 40
10.91693789564363
 40
11.15832906556624
 40
11.18982674596678
 40
11.27286608520465
 40
11.39026653033413
 40
11.5248475284095
 40
11.65942852648512
 40
11.77682897161553
 40
11.85986831085749
 40
11.89136598230498
 40
11.89136598230498
 40
11.89136598230498
 40
11.89136598230498
 10
132.3282837527815
 20
-84.68755834112318
 30
0.0
 10
132.3283190284907
 20
-84.67867587502106
 30
0.0
 10
132.3284319230415
 20
-84.65025197766744
 30
0.0
 10
132.3267937088107
 20
-84.60045795644288
 30
0.0
 10
132.332470281253
 20
-84.55797870335932
 30
0.0
 10
132.3211881251325
 20
-84.50725279957241
 30
0.0
 10
132.3887249498651
 20
-84.52442534073975
 30
0.0
 10
132.4642981730319
 20
-84.51165207648098
 30
0.0
 10
132.608330957562
 20
-84.51825705356703
 30
0.0
 10
132.7824371705046
 20
-84.51566972607625
 30
0.0
 10
132.9894552130622
 20
-84.51654842858534
 30
0.0
 10
133.2149640691997
 20
-84.51627226894064
 30
0.0
 10
133.4506114813025
 20
-84.51637095155425
 30
0.0
 10
133.6862593050967
 20
-84.51627250401326
 30
0.0
 10
133.9117670100245
 20
-84.51654756623296
 30
0.0
 10
134.1187887152424
 20
-84.51567248543356
 30
0.0
 10
134.2928841434908
 20
-84.51824912135646
 30
0.0
 10
134.4369444591604
 20
-84.51167144364874
 30
0.0
 10
134.5124644434913
 20
-84.52439191408486
 30
0.0
 10
134.5800728556649
 20
-84.50729034622401
 30
0.0
 10
134.5685792660296
 20
-84.5578064901115
 30
0.0
 10
134.5760057101353
 20
-84.60202182587591
 30
0.0
 10
134.5683791447606
 20
-84.64587468310478
 30
0.0
 10
134.5801441979045
 20
-84.69577060334765
 30
0.0
 10
134.5185741011602
 20
-84.68062207101573
 30
0.0
 10
134.4511744258291
 20
-84.69144769463419
 30
0.0
 10
134.3267956575841
 20
-84.68603403187849
 30
0.0
 10
134.1809380756191
 20
-84.68806229423312
 30
0.0
 10
134.0148528959704
 20
-84.68739657235703
 30
0.0
 10
133.8443365141343
 20
-84.68765791292849
 30
0.0
 10
133.6774743375008
 20
-84.68733881422997
 30
0.0
 10
133.5342299346725
 20
-84.68820132223328
 30
0.0
 10
133.4028266389453
 20
-84.68592134331098
 30
0.0
 10
133.3494811654276
 20
-84.69047730439893
 30
0.0
 10
133.2740140976531
 20
-84.68455519821211
 30
0.0
 10
133.3024028298851
 20
-84.69361265470738
 30
0.0
 10
133.3288604929161
 20
-84.6972952254516
 30
0.0
 10
133.2888475427321
 20
-84.72801162845818
 30
0.0
 10
133.1968616211488
 20
-84.71787843639457
 30
0.0
 10
133.1694348726688
 20
-84.96422932566303
 30
0.0
 10
133.0733746486854
 20
-85.1195587604972
 30
0.0
 10
132.8172230484092
 20
-85.44930016882518
 30
0.0
 10
133.3882490252382
 20
-85.3102541260364
 30
0.0
 10
133.6428608840135
 20
-85.31163654840725
 30
0.0
 10
134.2534599568238
 20
-85.39664865572007
 30
0.0
 10
133.9595651097702
 20
-85.09770017255886
 30
0.0
 10
133.6388256806135
 20
-84.9512457791231
 30
0.0
 10
133.7568495880053
 20
-84.89429893995802
 30
0.0
 10
133.797966898588
 20
-84.8703533494074
 30
0.0
 10
133.841176491403
 20
-84.84855676002857
 30
0.0
 10
133.9429526614069
 20
-84.78526713560188
 30
0.0
 10
134.0583820144867
 20
-85.04308283405305
 30
0.0
 10
134.2584544161897
 20
-85.17839393700407
 30
0.0
 10
134.3524029906847
 20
-85.35662639675208
 30
0.0
 10
134.5813782266014
 20
-85.51457613787045
 30
0.0
 10
134.4850984366327
 20
-85.56539462237788
 30
0.0
 10
134.4422912283399
 20
-85.59574142291038
 30
0.0
 10
134.3973196048398
 20
-85.61989304532632
 30
0.0
 10
134.3376673444833
 20
-85.6690328806652
 30
0.0
 10
134.3044683580944
 20
-85.53457959140482
 30
0.0
 10
134.1836965870416
 20
-85.37861169527503
 30
0.0
 10
133.8225928525598
 20
-85.50885506754538
 30
0.0
 10
133.464001447516
 20
-85.49230740404602
 30
0.0
 10
133.0825872969698
 20
-85.50124205462227
 30
0.0
 10
132.795840780251
 20
-85.56572763141685
 30
0.0
 10
132.4847008119334
 20
-85.4522476662126
 30
0.0
 10
132.4523690338407
 20
-85.56333174886322
 30
0.0
 10
132.4151130772937
 20
-85.58259120964074
 30
0.0
 10
132.4120690152373
 20
-85.53580650726796
 30
0.0
 10
132.3934845380226
 20
-85.49648580894954
 30
0.0
 10
132.3767389136397
 20
-85.43689451335857
 30
0.0
 10
132.3638683435372
 20
-85.39253464942807
 30
0.0
 10
132.3297280326048
 20
-85.30349103693885
 30
0.0
 10
132.5737666977372
 20
-85.37274391870321
 30
0.0
 10
132.7696347006291
 20
-85.39425065756343
 30
0.0
 10
132.8650378900896
 20
-85.11228950335625
 30
0.0
 10
132.9200088289217
 20
-84.95092389392967
 30
0.0
 10
133.1414571876776
 20
-84.68064257224353
 30
0.0
 10
133.0104191900836
 20
-84.68906987960357
 30
0.0
 10
132.9364979075474
 20
-84.68676426317117
 30
0.0
 10
132.8232412395864
 20
-84.68784056492439
 30
0.0
 10
132.6949204327103
 20
-84.68747795737576
 30
0.0
 10
132.5659204550034
 20
-84.68757710348005
 30
0.0
 10
132.454279346591
 20
-84.6875550210152
 30
0.0
 10
132.3769616489645
 20
-84.6875585562442
 30
0.0
 10
132.3387829051629
 20
-84.6875583896901
 30
0.0
 10
132.3282837527815
 20
-84.68755834112318
 30
0.0
 11
132.3282837527815
 21
-84.68755834112318
 31
0.0
 11
132.3282837527815
 21
-84.66080510762292
 31
0.0
 11
132.3282837527815
 21
-84.60194799392237
 31
0.0
 11
132.3282837527815
 21
-84.5430908802218
 31
0.0
 11
132.3282837527815
 21
-84.51633764672154
 31
0.0
 11
132.3610046800608
 21
-84.51633764672152
 31
0.0
 11
132.4526232764428
 21
-84.51633764672154
 31
0.0
 11
132.5933232637438
 21
-84.51633764672154
 31
0.0
 11
132.7732883637799
 21
-84.51633764672154
 31
0.0
 11
132.9827022983673
 21
-84.51633764672154
 31
0.0
 11
133.2117487893223
 21
-84.51633764672154
 31
0.0
 11
133.4506115584612
 21
-84.51633764672154
 31
0.0
 11
133.6894743276
 21
-84.51633764672155
 31
0.0
 11
133.9185208185551
 21
-84.51633764672154
 31
0.0
 11
134.1279347531425
 21
-84.51633764672154
 31
0.0
 11
134.3078998531786
 21
-84.51633764672155
 31
0.0
 11
134.4485998404796
 21
-84.51633764672154
 31
0.0
 11
134.5402184368616
 21
-84.51633764672154
 31
0.0
 11
134.5729393641409
 21
-84.51633764672154
 31
0.0
 11
134.5729393641409
 21
-84.5430908802218
 31
0.0
 11
134.5729393641409
 21
-84.60194799392235
 31
0.0
 11
134.5729393641409
 21
-84.66080510762293
 31
0.0
 11
134.5729393641409
 21
-84.68755834112318
 31
0.0
 11
134.5429681474377
 21
-84.68755834112318
 31
0.0
 11
134.4607890048646
 21
-84.6875583411232
 31
0.0
 11
134.3380036977259
 21
-84.68755834112316
 31
0.0
 11
134.1862139873261
 21
-84.6875583411232
 31
0.0
 11
134.0170216349697
 21
-84.6875583411232
 31
0.0
 11
133.842028401961
 21
-84.6875583411232
 31
0.0
 11
133.6728360496045
 21
-84.68755834112318
 31
0.0
 11
133.5210463392048
 21
-84.68755834112318
 31
0.0
 11
133.3982610320661
 21
-84.68755834112318
 31
0.0
 11
133.3160818894929
 21
-84.68755834112318
 31
0.0
 11
133.2861106727898
 21
-84.68755834112318
 31
0.0
 11
133.3021311932144
 21
-84.69289851473296
 31
0.0
 11
133.318151713639
 21
-84.69823868834274
 31
0.0
 11
133.296110820104
 21
-84.71897320222648
 31
0.0
 11
133.2539814374983
 21
-84.7276956327798
 31
0.0
 11
133.1620188060997
 21
-84.92546187501432
 31
0.0
 11
133.0534031041383
 21
-85.13987922835582
 31
0.0
 11
132.9382453344426
 21
-85.3483287576247
 31
0.0
 11
133.3112319194639
 21
-85.33872993561062
 31
0.0
 11
133.7085652555769
 21
-85.32674202409095
 31
0.0
 11
134.1154294710765
 21
-85.31352722985557
 31
0.0
 11
133.9238072016597
 21
-85.10488673511608
 31
0.0
 11
133.7221704533317
 21
-84.91226014662257
 31
0.0
 11
133.7459900314368
 21
-84.89930107544524
 31
0.0
 11
133.798393103268
 21
-84.87079111885512
 31
0.0
 11
133.8507961750993
 21
-84.84228116226501
 31
0.0
 11
133.8746157532044
 21
-84.82932209108769
 31
0.0
 11
134.0642054078246
 21
-85.00375926443822
 31
0.0
 11
134.2455263460055
 21
-85.19149588439998
 31
0.0
 11
134.4032681750766
 21
-85.37673053821652
 31
0.0
 11
134.5221205023678
 21
-85.54366181313141
 31
0.0
 11
134.4970360737543
 21
-85.5595423252802
 31
0.0
 11
134.4418503308045
 21
-85.59447945200759
 31
0.0
 11
134.3866645878547
 21
-85.62941657873495
 31
0.0
 11
134.3615801592412
 21
-85.64529709088374
 31
0.0
 11
134.3030470671232
 21
-85.5556761013228
 31
0.0
 11
134.2304967598077
 21
-85.45805146593057
 31
0.0
 11
133.8380365443714
 21
-85.47819147870331
 31
0.0
 11
133.4504426589179
 21
-85.49652131814315
 31
0.0
 11
133.0822331495832
 21
-85.51253256091694
 31
0.0
 11
132.7479260625031
 21
-85.52571678369142
 31
0.0
 11
132.4620394438137
 21
-85.53556556313339
 31
0.0
 11
132.4466814841359
 21
-85.56234911347394
 31
0.0
 11
132.4192386810165
 21
-85.57311875756844
 31
0.0
 11
132.4122879711938
 21
-85.55085135368512
 31
0.0
 11
132.3957132016168
 21
-85.49775215980951
 31
0.0
 11
132.3759304121215
 21
-85.43437570260313
 31
0.0
 11
132.3593556425444
 21
-85.38127650872751
 31
0.0
 11
132.3524049327217
 21
-85.35900910484419
 31
0.0
 11
132.5346152378772
 21
-85.35703795901138
 31
0.0
 11
132.7429928368207
 21
-85.35099222984617
 31
0.0
 11
132.8558155646835
 21
-85.13971884512534
 31
0.0
 11
132.9662889241655
 21
-84.9094562165821
 31
0.0
 11
133.0613206785247
 21
-84.68755834112318
 31
0.0
 11
133.0298229981217
 21
-84.68755834112318
 31
0.0
 11
132.9467836588773
 21
-84.68755834112318
 31
0.0
 11
132.8293832137388
 21
-84.6875583411232
 31
0.0
 11
132.6948022156531
 21
-84.68755834112318
 31
0.0
 11
132.5602212175674
 21
-84.68755834112318
 31
0.0
 11
132.4428207724289
 21
-84.68755834112318
 31
0.0
 11
132.3597814331845
 21
-84.68755834112318
 31
0.0
 11
132.3282837527815
 21
-84.68755834112318
 31
0.0
  0
SPLINE
  5
AA
102
{ACAD_REACTORS
330
C7
102
}
330
48
100
AcDbEntity
  8
_U_30EC_U_30A4_U_30E4_U_30FC_1
  6
Continuous
 62
     2
100
AcDbSpline
210
0.0
220
0.0
230
1.0
 70
    11
 71
     3
 72
    35
 73
    31
 74
    29
 42
0.000000001
 43
0.0000000001
 44
0.00000001
 40
0.0
 40
0.0
 40
0.0
 40
0.0
 40
0.0335231036620645
 40
0.0713218571712025
 40
0.4278866681486924
 40
0.8116865841964015
 40
1.198190238000054
 40
1.561379546812705
 40
1.659983174622031
 40
1.759315573807216
 40
2.132719617231057
 40
2.525233363588786
 40
2.910815397779713
 40
3.265244364303287
 40
3.592606723581991
 40
3.964386154603965
 40
4.359942131737826
 40
4.758154118639338
 40
4.843846538699941
 40
4.936650065543196
 40
5.256616602537258
 40
5.581707404415948
 40
5.899719158308057
 40
6.198363494280653
 40
6.466301046615722
 40
6.493895311536986
 40
6.559697020196779
 40
6.638234543442326
 40
6.704036252154079
 40
6.731630508422857
 40
6.731630508422857
 40
6.731630508422857
 40
6.731630508422857
 10
133.5990963088288
 20
-83.15991591094955
 30
0.0
 10
133.5930958617408
 20
-83.16974744271765
 30
0.0
 10
133.5803296618776
 20
-83.19066446234294
 30
0.0
 10
133.4204314526173
 20
-83.22328308281384
 30
0.0
 10
133.8576978361956
 20
-83.51248754477396
 30
0.0
 10
134.060034734788
 20
-83.71414296455649
 30
0.0
 10
134.3074516787592
 20
-83.9570604721082
 30
0.0
 10
134.8086466144225
 20
-84.03407772056308
 30
0.0
 10
134.6380514718589
 20
-84.17578495639435
 30
0.0
 10
134.563825198282
 20
-84.37745068604981
 30
0.0
 10
134.2386384767807
 20
-84.02499147639364
 30
0.0
 10
133.9532694190283
 20
-83.86280222254523
 30
0.0
 10
133.6592556597277
 20
-83.65768304761048
 30
0.0
 10
133.4339405210753
 20
-83.17627946218633
 30
0.0
 10
133.2248037575142
 20
-83.64112388204872
 30
0.0
 10
132.9462826194453
 20
-83.85104482561177
 30
0.0
 10
132.6626335696828
 20
-84.02030978454101
 30
0.0
 10
132.3333592047451
 20
-84.39313073906156
 30
0.0
 10
132.2531964837843
 20
-84.1974742035509
 30
0.0
 10
132.1014677429365
 20
-84.06964330623488
 30
0.0
 10
132.5338348346414
 20
-83.99001403048155
 30
0.0
 10
132.7217517849385
 20
-83.79428799898614
 30
0.0
 10
132.9723429940122
 20
-83.57822437897335
 30
0.0
 10
133.1969302989781
 20
-83.41264442514034
 30
0.0
 10
133.2514727929332
 20
-83.13321470177266
 30
0.0
 10
133.3749613548631
 20
-83.14717484406009
 30
0.0
 10
133.4315225864139
 20
-83.14934165946443
 30
0.0
 10
133.5016823504564
 20
-83.15408574932732
 30
0.0
 10
133.5588366541724
 20
-83.15746005463545
 30
0.0
 10
133.5899142840458
 20
-83.15935580102972
 30
0.0
 10
133.5990963088288
 20
-83.15991591094955
 30
0.0
 11
133.5990963088288
 21
-83.15991591094955
 31
0.0
 11
133.5780271589503
 21
-83.18599059844304
 31
0.0
 11
133.5429417079044
 21
-83.2000532026062
 31
0.0
 11
133.7767327288713
 21
-83.46927473682707
 31
0.0
 11
134.0669538477185
 21
-83.72042026844831
 31
0.0
 11
134.3867750003303
 21
-83.93744447195306
 31
0.0
 11
134.7093661225908
 21
-84.10430202182452
 31
0.0
 11
134.6468252387696
 21
-84.1805339922916
 31
0.0
 11
134.5942988338594
 21
-84.26484236900666
 31
0.0
 11
134.2691231615433
 21
-84.08129029982508
 31
0.0
 11
133.9492180288055
 21
-83.85385295070661
 31
0.0
 11
133.6609152678227
 21
-83.5978157969078
 31
0.0
 11
133.4305467107714
 21
-83.32846431368523
 31
0.0
 11
133.2250484239136
 21
-83.58329086093053
 31
0.0
 11
132.9543253861155
 21
-83.83810252536334
 31
0.0
 11
132.6374490942865
 21
-84.07485968459233
 31
0.0
 11
132.293491045336
 21
-84.27552271622623
 31
0.0
 11
132.2473807860957
 21
-84.20329367110536
 31
0.0
 11
132.1891922979968
 21
-84.13099848015123
 31
0.0
 11
132.4687993008635
 21
-83.97543977852344
 31
0.0
 11
132.7347957140773
 21
-83.78854425023684
 31
0.0
 11
132.9754949979366
 21
-83.58070938528881
 31
0.0
 11
133.1792106127394
 21
-83.36233267367675
 31
0.0
 11
133.3342560187838
 21
-83.14381160539803
 31
0.0
 11
133.3617994089485
 21
-83.14548645317538
 31
0.0
 11
133.4274798008796
 21
-83.14948032095216
 31
0.0
 11
133.505872526733
 21
-83.15424719539541
 31
0.0
 11
133.5715529186641
 21
-83.1582410631722
 31
0.0
 11
133.5990963088288
 21
-83.15991591094955
 31
0.0
  0
SPLINE
  5
AB
102
{ACAD_REACTORS
330
C8
102
}
330
48
100
AcDbEntity
  8
_U_30EC_U_30A4_U_30E4_U_30FC_1
  6
Continuous
 62
     2
100
AcDbSpline
210
0.0
220
0.0
230
1.0
 70
    11
 71
     3
 72
    15
 73
    11
 74
     9
 42
0.000000001
 43
0.0000000001
 44
0.00000001
 40
0.0
 40
0.0
 40
0.0
 40
0.0
 40
0.2785535985095868
 40
0.5215624748198693
 40
0.6076917376040255
 40
0.6938210001741428
 40
0.940501914645543
 40
1.221691403489171
 40
1.300471877081143
 40
1.379252341684951
 40
1.379252341684951
 40
1.379252341684951
 40
1.379252341684951
 10
131.1936446150619
 20
-83.16525167483708
 30
0.0
 10
131.2550970313798
 20
-83.21763788221375
 30
0.0
 10
131.3701602493733
 20
-83.31572558015871
 30
0.0
 10
131.6652301016864
 20
-83.46565648916867
 30
0.0
 10
131.5280100151476
 20
-83.55112207299078
 30
0.0
 10
131.4296180363397
 20
-83.68369649612532
 30
0.0
 10
131.3384986110269
 20
-83.37838449032674
 30
0.0
 10
130.9891792000274
 20
-83.31487565348712
 30
0.0
 10
131.137421089619
 20
-83.21558924933211
 30
0.0
 10
131.1749034393857
 20
-83.18203086411708
 30
0.0
 10
131.1936446150619
 20
-83.16525167483708
 30
0.0
 11
131.1936446150619
 21
-83.16525167483708
 31
0.0
 11
131.4174174960215
 21
-83.33113660535116
 31
0.0
 11
131.5949998826003
 21
-83.49702153586526
 31
0.0
 11
131.5321260647599
 21
-83.55588691779498
 31
0.0
 11
131.4692522469194
 21
-83.6147522997247
 31
0.0
 11
131.2943487637344
 21
-83.440797577546
 31
0.0
 11
131.0733209375759
 21
-83.26697514703388
 31
0.0
 11
131.1334827763189
 21
-83.21611341093548
 31
0.0
 11
131.1936446150619
 21
-83.16525167483708
 31
0.0
  0
SPLINE
  5
AC
102
{ACAD_REACTORS
330
C9
102
}
330
48
100
AcDbEntity
  8
_U_30EC_U_30A4_U_30E4_U_30FC_1
  6
Continuous
 62
     2
100
AcDbSpline
210
0.0
220
0.0
230
1.0
 70
    11
 71
     3
 72
    75
 73
    71
 74
    69
 42
0.000000001
 43
0.0000000001
 44
0.00000001
 40
0.0
 40
0.0
 40
0.0
 40
0.0
 40
0.034254609912978
 40
0.1245622414432151
 40
0.2522385480897358
 40
0.3985991922940715
 40
0.5449598364980803
 40
0.6726361431438763
 40
0.7629437746737013
 40
0.7971983935297973
 40
1.101723623449688
 40
1.408591244036697
 40
1.433332471690423
 40
1.4877631724502
 40
1.542193873082039
 40
1.56693510059259
 40
1.923523931821899
 40
2.271755704953704
 40
2.590579755100972
 40
2.85894330558123
 40
2.889120339309222
 40
2.918305855191126
 40
2.941366645531265
 40
2.996357760973152
 40
3.0619923181407
 40
3.116983433626922
 40
3.140044223997606
 40
3.411273122936553
 40
3.732441619741191
 40
3.761068217532891
 40
3.837787499630462
 40
3.948858699126102
 40
4.080541049104479
 40
4.219093782625844
 40
4.350776132722398
 40
4.461847332405736
 40
4.538566614678469
 40
4.567193212544719
 40
4.594907573998977
 40
4.666381453557488
 40
4.764111044011099
 40
4.870592538125873
 40
4.968322128642296
 40
5.039796008286981
 40
5.067510369784411
 40
5.094263603185606
 40
5.153120716668251
 40
5.211977830150698
 40
5.238731063551707
 40
5.272290535138975
 40
5.363380529444807
 40
5.497618415781456
 40
5.660621563453727
 40
5.8380073417494
 40
6.015393119910751
 40
6.178396267038377
 40
6.3126341518423
 40
6.403724143059318
 40
6.437283612672413
 40
6.46403684626102
 40
6.522893960004634
 40
6.581751071483918
 40
6.608504301590852
 40
6.637253941280999
 40
6.711397748902851
 40
6.812778057283492
 40
6.923237199249268
 40
7.02461750762394
 40
7.098761315207593
 40
7.127510946007572
 40
7.127510946007572
 40
7.127510946007572
 40
7.127510946007572
 10
130.0673574910183
 20
-84.43606306340826
 30
0.0
 10
130.0673575339326
 20
-84.44748121405368
 30
0.0
 10
130.0673577000748
 20
-84.48900176971465
 30
0.0
 10
130.0673545601405
 20
-84.57308512810314
 30
0.0
 10
130.0673740799419
 20
-84.69450937491763
 30
0.0
 10
130.0672864707356
 20
-84.83474940766638
 30
0.0
 10
130.0676068754849
 20
-84.97448878019514
 30
0.0
 10
130.0666558429359
 20
-85.0971039591916
 30
0.0
 10
130.0686931115586
 20
-85.17868360376049
 30
0.0
 10
130.0604385698364
 20
-85.33184167736388
 30
0.0
 10
130.3685750460521
 20
-85.1689519875937
 30
0.0
 10
130.6605597693354
 20
-84.99972496126088
 30
0.0
 10
130.6663306968327
 20
-85.13482199032178
 30
0.0
 10
130.6710424239509
 20
-85.17838213653646
 30
0.0
 10
130.6737487931537
 20
-85.22244185463542
 30
0.0
 10
130.6927498192579
 20
-85.37182844450965
 30
0.0
 10
130.2838894766921
 20
-85.3077426257282
 30
0.0
 10
130.0048662868451
 20
-85.42159093403075
 30
0.0
 10
129.7273034106786
 20
-85.52091339002952
 30
0.0
 10
129.4354789704017
 20
-85.47824747217723
 30
0.0
 10
129.4124097198277
 20
-85.58133755069548
 30
0.0
 10
129.3792426902953
 20
-85.60764343569619
 30
0.0
 10
129.3735606482358
 20
-85.56000125777786
 30
0.0
 10
129.3539167078664
 20
-85.5227509869902
 30
0.0
 10
129.3350042005242
 20
-85.46448046966525
 30
0.0
 10
129.3197802387326
 20
-85.42070233806287
 30
0.0
 10
129.2732198892554
 20
-85.30696013767776
 30
0.0
 10
129.614584983207
 20
-85.33879133694046
 30
0.0
 10
129.8934601887004
 20
-85.37293999707603
 30
0.0
 10
129.8872705554526
 20
-85.22541458334439
 30
0.0
 10
129.8885887972392
 20
-85.15442283905256
 30
0.0
 10
129.8879784209567
 20
-85.04735666855427
 30
0.0
 10
129.8880824090344
 20
-84.9205690502809
 30
0.0
 10
129.8884940483674
 20
-84.78606191318039
 30
0.0
 10
129.8868860361588
 20
-84.66059884862906
 30
0.0
 10
129.8914855087544
 20
-84.54950188094972
 30
0.0
 10
129.8819139021829
 20
-84.48693548013404
 30
0.0
 10
129.895895430331
 20
-84.42860046519088
 30
0.0
 10
129.8402336906324
 20
-84.4416572423185
 30
0.0
 10
129.783060771744
 20
-84.43319127064586
 30
0.0
 10
129.6871001445267
 20
-84.43725458733456
 30
0.0
 10
129.5888720042441
 20
-84.43484544961615
 30
0.0
 10
129.492753497718
 20
-84.439038342007
 30
0.0
 10
129.4359601045431
 20
-84.43026088372929
 30
0.0
 10
129.3805309393004
 20
-84.44360497963966
 30
0.0
 10
129.3925631947537
 20
-84.39418523854836
 30
0.0
 10
129.3846955693557
 20
-84.35061446783692
 30
0.0
 10
129.3921248083449
 20
-84.30624965695563
 30
0.0
 10
129.3806883083763
 20
-84.25553137050098
 30
0.0
 10
129.4487054889753
 20
-84.27292974056346
 30
0.0
 10
129.5223449399366
 20
-84.260379845769
 30
0.0
 10
129.6580016577831
 20
-84.26655757802996
 30
0.0
 10
129.8139861544145
 20
-84.26426231721005
 30
0.0
 10
129.9870878877763
 20
-84.26514466551559
 30
0.0
 10
130.1601895483801
 20
-84.2642622767168
 30
0.0
 10
130.3161742330836
 20
-84.2665577185854
 30
0.0
 10
130.4518304409416
 20
-84.26037948551655
 30
0.0
 10
130.5254709225272
 20
-84.27293040595757
 30
0.0
 10
130.5934866694344
 20
-84.25553061801948
 30
0.0
 10
130.5820543405541
 20
-84.30625304399534
 30
0.0
 10
130.5894491977918
 20
-84.35058374002983
 30
0.0
 10
130.581699243189
 20
-84.39427127263895
 30
0.0
 10
130.5936156261497
 20
-84.44391844715614
 30
0.0
 10
130.5363122743236
 20
-84.42994023475663
 30
0.0
 10
130.4775098309392
 20
-84.43915679140832
 30
0.0
 10
130.3780246152819
 20
-84.43503166649162
 30
0.0
 10
130.2749232617969
 20
-84.43632674788206
 30
0.0
 10
130.1792798874192
 20
-84.43601357736443
 30
0.0
 10
130.1112420491236
 20
-84.43606658116947
 30
0.0
 10
130.0769414733062
 20
-84.43606382942434
 30
0.0
 10
130.0673574910183
 20
-84.43606306340826
 30
0.0
 11
130.0673574910183
 21
-84.43606306340826
 31
0.0
 11
130.0673574910183
 21
-84.47031768226906
 31
0.0
 11
130.0673574910183
 21
-84.56062531381113
 31
0.0
 11
130.0673574910183
 21
-84.68830162047409
 31
0.0
 11
130.0673574910183
 21
-84.8346622646975
 31
0.0
 11
130.0673574910183
 21
-84.98102290892089
 31
0.0
 11
130.0673574910183
 21
-85.10869921558385
 31
0.0
 11
130.0673574910183
 21
-85.19900684712596
 31
0.0
 11
130.0673574910183
 21
-85.23326146598674
 31
0.0
 11
130.3646885164186
 21
-85.16745959100321
 31
0.0
 11
130.6639576146864
 21
-85.09959396602017
 31
0.0
 11
130.6660439644596
 21
-85.12424706931262
 31
0.0
 11
130.6706339339605
 21
-85.17848389655599
 31
0.0
 11
130.6752239034615
 21
-85.23272072379937
 31
0.0
 11
130.6773102532347
 21
-85.25737382709183
 31
0.0
 11
130.3311349408859
 21
-85.3429206467319
 31
0.0
 11
129.9924605658457
 21
-85.42394557184188
 31
0.0
 11
129.6818684036307
 21
-85.4959267078916
 31
0.0
 11
129.4199397297574
 21
-85.55434216035098
 31
0.0
 11
129.4072467548911
 21
-85.58171992076076
 31
0.0
 11
129.3824747307133
 21
-85.59715174367355
 31
0.0
 11
129.3746820109121
 21
-85.57544751423453
 31
0.0
 11
129.3560993713861
 21
-85.52369127480304
 31
0.0
 11
129.3339200919519
 21
-85.4619176987074
 31
0.0
 11
129.3153374524259
 21
-85.41016145927588
 31
0.0
 11
129.3075447326247
 21
-85.38845722983687
 31
0.0
 11
129.5737728855551
 21
-85.33661433054424
 31
0.0
 11
129.8881287455908
 21
-85.27081466042179
 31
0.0
 11
129.8881287455908
 21
-85.24218806244465
 31
0.0
 11
129.8881287455908
 21
-85.16546877986589
 31
0.0
 11
129.8881287455908
 21
-85.05439757971457
 31
0.0
 11
129.8881287455908
 21
-84.9227152290197
 31
0.0
 11
129.8881287455908
 21
-84.78416249481035
 31
0.0
 11
129.8881287455908
 21
-84.65248014411547
 31
0.0
 11
129.8881287455908
 21
-84.54140894396414
 31
0.0
 11
129.8881287455908
 21
-84.46468966138539
 31
0.0
 11
129.8881287455908
 21
-84.43606306340826
 31
0.0
 11
129.8604143840727
 21
-84.43606306340826
 31
0.0
 11
129.7889405043683
 21
-84.43606306340824
 31
0.0
 11
129.6912109137519
 21
-84.43606306340826
 31
0.0
 11
129.5847294194984
 21
-84.43606306340826
 31
0.0
 11
129.486999828882
 21
-84.43606306340824
 31
0.0
 11
129.4155259491775
 21
-84.43606306340826
 31
0.0
 11
129.3878115876595
 21
-84.43606306340826
 31
0.0
 11
129.3878115876595
 21
-84.40930982990801
 31
0.0
 11
129.3878115876595
 21
-84.35045271620746
 31
0.0
 11
129.3878115876595
 21
-84.2915956025069
 31
0.0
 11
129.3878115876595
 21
-84.26484236900666
 31
0.0
 11
129.4213710592495
 21
-84.26484236900666
 31
0.0
 11
129.5124610535651
 21
-84.26484236900666
 31
0.0
 11
129.6466989399249
 21
-84.26484236900667
 31
0.0
 11
129.8097020876476
 21
-84.26484236900666
 31
0.0
 11
129.9870878660516
 21
-84.26484236900666
 31
0.0
 11
130.1644736444557
 21
-84.26484236900666
 31
0.0
 11
130.3274767921784
 21
-84.26484236900666
 31
0.0
 11
130.4617146785382
 21
-84.26484236900666
 31
0.0
 11
130.5528046728538
 21
-84.26484236900666
 31
0.0
 11
130.5863641444438
 21
-84.26484236900666
 31
0.0
 11
130.5863641444438
 21
-84.2915956025069
 31
0.0
 11
130.5863641444438
 21
-84.35045271620746
 31
0.0
 11
130.5863641444438
 21
-84.40930982990801
 31
0.0
 11
130.5863641444438
 21
-84.43606306340826
 31
0.0
 11
130.5576145047497
 21
-84.43606306340826
 31
0.0
 11
130.4834706971175
 21
-84.43606306340824
 31
0.0
 11
130.3820903887224
 21
-84.43606306340826
 31
0.0
 11
130.2716312467397
 21
-84.43606306340826
 31
0.0
 11
130.1702509383446
 21
-84.43606306340824
 31
0.0
 11
130.0961071307124
 21
-84.43606306340826
 31
0.0
 11
130.0673574910183
 21
-84.43606306340826
 31
0.0
  0
SPLINE
  5
AD
102
{ACAD_REACTORS
330
CA
102
}
330
48
100
AcDbEntity
  8
_U_30EC_U_30A4_U_30E4_U_30FC_1
  6
Continuous
 62
     2
100
AcDbSpline
210
0.0
220
0.0
230
1.0
 70
    11
 71
     3
 72
    91
 73
    87
 74
    85
 42
0.000000001
 43
0.0000000001
 44
0.00000001
 40
0.0
 40
0.0
 40
0.0
 40
0.0
 40
0.0345987051695434
 40
0.1258134969461369
 40
0.2547723404888987
 40
0.4026032099154125
 40
0.5504340793416704
 40
0.679392922883608
 40
0.770607714657132
 40
0.8052064287780925
 40
1.124852390615288
 40
1.427402236308868
 40
1.706356627453517
 40
1.95554141787522
 40
2.16948593856636
 40
2.344350786664801
 40
2.480568411561947
 40
2.590440557428944
 40
2.649189927151123
 40
2.749320643306325
 40
2.91263273988002
 40
3.147745656000227
 40
3.244827496385104
 40
3.338490056946742
 40
3.583815413207176
 40
3.761423943238535
 40
3.886956104362693
 40
3.985855451886883
 40
4.091766255337681
 40
4.250186473811928
 40
4.422734315084567
 40
4.62828568483869
 40
4.872093227758525
 40
5.15254965214562
 40
5.464967135837624
 40
5.803201477852525
 40
6.160362988814001
 40
6.193449448276056
 40
6.284170385501739
 40
6.419718138764581
 40
6.587285046385831
 40
6.774063446723773
 40
6.967245678113728
 40
7.154024078817742
 40
7.321590987026128
 40
7.457138740890486
 40
7.547859678556223
 40
7.580946138182783
 40
7.608533084714836
 40
7.669224367077818
 40
7.729915649430027
 40
7.757502595950087
 40
7.790278062553541
 40
7.880146277431039
 40
8.014419963180472
 40
8.180411842397973
 40
8.365434637679414
 40
8.556801071622715
 40
8.7418238668308
 40
8.907815745916338
 40
9.042089431507463
 40
9.131957646249589
 40
9.164733112797165
 40
9.415425063140086
 40
9.667986180958563
 40
9.694169807462702
 40
9.756607686047605
 40
9.83113031532244
 40
9.89356819389985
 40
9.919751820398664
 40
9.950967964690498
 40
9.996421631210607
 40
10.22087981037449
 40
10.44341866197538
 40
10.47847970788851
 40
10.57091337438749
 40
10.70159545461226
 40
10.85140174170354
 40
11.00120802880474
 40
11.13189010907379
 40
11.22432377583001
 40
11.2593848093895
 40
11.28697175596139
 40
11.34766303835913
 40
11.40835432042064
 40
11.43594125892098
 40
11.43594125892098
 40
11.43594125892098
 40
11.43594125892098
 10
131.7073066852908
 20
-83.84212639689012
 30
0.0
 10
131.695773836456
 20
-83.84212644526174
 30
0.0
 10
131.6538361964618
 20
-83.84212661109923
 30
0.0
 10
131.5689082238644
 20
-83.84212309013182
 30
0.0
 10
131.4462641072748
 20
-83.8421450837821
 30
0.0
 10
131.3046159436612
 20
-83.84204633637033
 30
0.0
 10
131.1634706218109
 20
-83.8424074858167
 30
0.0
 10
131.0396303837523
 20
-83.84133551205001
 30
0.0
 10
130.9572170345
 20
-83.84363185722822
 30
0.0
 10
130.7982743749311
 20
-83.83406865440669
 30
0.0
 10
130.9758354872994
 20
-84.19670040502719
 30
0.0
 10
130.9634691725072
 20
-84.44212307090973
 30
0.0
 10
131.0319471993484
 20
-84.72592933489254
 30
0.0
 10
131.0947976840589
 20
-84.96204434875052
 30
0.0
 10
131.1707205951349
 20
-85.16128694417961
 30
0.0
 10
131.2558142096635
 20
-85.31710087362717
 30
0.0
 10
131.3499560112555
 20
-85.41797577032696
 30
0.0
 10
131.4537600727347
 20
-85.46989582175124
 30
0.0
 10
131.5380824550393
 20
-85.41848950434472
 30
0.0
 10
131.5606274699071
 20
-85.30310890776573
 30
0.0
 10
131.600068349499
 20
-85.17570285111708
 30
0.0
 10
131.5457872254562
 20
-84.85833106727335
 30
0.0
 10
131.6706170592092
 20
-85.00473254673184
 30
0.0
 10
131.8274244033223
 20
-85.03660134482917
 30
0.0
 10
131.7202672526676
 20
-85.27034077046461
 30
0.0
 10
131.7063663729487
 20
-85.43482658230434
 30
0.0
 10
131.6489661986845
 20
-85.56324565691608
 30
0.0
 10
131.5589972664628
 20
-85.63436632461261
 30
0.0
 10
131.4350227177497
 20
-85.65023110671835
 30
0.0
 10
131.2889225716479
 20
-85.6146163725992
 30
0.0
 10
131.1498846839903
 20
-85.4945486431381
 30
0.0
 10
131.0356956481763
 20
-85.32019752263776
 30
0.0
 10
130.9401093821104
 20
-85.09508831702844
 30
0.0
 10
130.8573605092246
 20
-84.8306718880765
 30
0.0
 10
130.8062131776031
 20
-84.51267501715543
 30
0.0
 10
130.7025141726957
 20
-84.23911706325177
 30
0.0
 10
130.8297793728141
 20
-83.83449616201216
 30
0.0
 10
130.6612843142638
 20
-83.84343066964414
 30
0.0
 10
130.5766948306698
 20
-83.84139473395726
 30
0.0
 10
130.4444828907247
 20
-83.8424149742568
 30
0.0
 10
130.2815457613723
 20
-83.8420220449566
 30
0.0
 10
130.0988711690153
 20
-83.8421973850072
 30
0.0
 10
129.9102009893002
 20
-83.84195329506623
 30
0.0
 10
129.7269421539809
 20
-83.84269776907855
 30
0.0
 10
129.5659699352337
 20
-83.84039074291661
 30
0.0
 10
129.4284760854895
 20
-83.8465562993043
 30
0.0
 10
129.354454289193
 20
-83.83422596355878
 30
0.0
 10
129.2868167706476
 20
-83.85126111090536
 30
0.0
 10
129.298732623889
 20
-83.79930996366562
 30
0.0
 10
129.2910629805313
 20
-83.75384009847562
 30
0.0
 10
129.2987544744735
 20
-83.70840981110385
 30
0.0
 10
129.2868094317381
 20
-83.65653038829521
 30
0.0
 10
129.3538540825487
 20
-83.67336291323828
 30
0.0
 10
129.4272328185295
 20
-83.66120025721418
 30
0.0
 10
129.5634080824892
 20
-83.66728203739132
 30
0.0
 10
129.7228764321131
 20
-83.66500600499035
 30
0.0
 10
129.9044125605456
 20
-83.6657420081513
 30
0.0
 10
130.0912987381798
 20
-83.66549480617954
 30
0.0
 10
130.2722964836455
 20
-83.66569034014836
 30
0.0
 10
130.4335755098497
 20
-83.66523200099252
 30
0.0
 10
130.5648834644506
 20
-83.66642761062884
 30
0.0
 10
130.6480003842215
 20
-83.66404087494351
 30
0.0
 10
130.7811189067433
 20
-83.67224829088627
 30
0.0
 10
130.6900846022278
 20
-83.41702565861432
 30
0.0
 10
130.6044585594039
 20
-83.15291076485852
 30
0.0
 10
130.7245541523075
 20
-83.16550991844922
 30
0.0
 10
130.7769217468163
 20
-83.16761199051017
 30
0.0
 10
130.8469450089335
 20
-83.1692003492443
 30
0.0
 10
130.8926874857436
 20
-83.17852867275978
 30
0.0
 10
130.9475765166552
 20
-83.16909467898662
 30
0.0
 10
130.92185273053
 20
-83.21722406158915
 30
0.0
 10
130.8080350091072
 20
-83.21188605069925
 30
0.0
 10
130.9414299140755
 20
-83.44006260237313
 30
0.0
 10
130.819861125509
 20
-83.67298578218167
 30
0.0
 10
130.9478141289032
 20
-83.66368175929652
 30
0.0
 10
131.0304000926079
 20
-83.6665443305941
 30
0.0
 10
131.1562167370443
 20
-83.66531997401786
 30
0.0
 10
131.2996422357677
 20
-83.66523002925126
 30
0.0
 10
131.4412373471347
 20
-83.66709271630238
 30
0.0
 10
131.5714079769586
 20
-83.66122358876925
 30
0.0
 10
131.644840480581
 20
-83.6738509399089
 30
0.0
 10
131.7146065441715
 20
-83.65577871703675
 30
0.0
 10
131.7030725125015
 20
-83.70842584267764
 30
0.0
 10
131.7088136866301
 20
-83.75234117127545
 30
0.0
 10
131.7071568290529
 20
-83.80365452137538
 30
0.0
 10
131.7072710081289
 20
-83.83296642792457
 30
0.0
 10
131.7073066852908
 20
-83.84212639689012
 30
0.0
 11
131.7073066852908
 21
-83.84212639689012
 31
0.0
 11
131.672707971167
 21
-83.84212639689012
 31
0.0
 11
131.581493179386
 21
-83.84212639689012
 31
0.0
 11
131.4525343358336
 21
-83.84212639689012
 31
0.0
 11
131.3047034663954
 21
-83.84212639689011
 31
0.0
 11
131.1568725969573
 21
-83.84212639689011
 31
0.0
 11
131.0279137534049
 21
-83.84212639689012
 31
0.0
 11
130.9366989616239
 21
-83.84212639689012
 31
0.0
 11
130.9021002475001
 21
-83.84212639689012
 31
0.0
 11
130.9338093017312
 21
-84.16019569883969
 31
0.0
 11
130.9782819176485
 21
-84.45945912026008
 31
0.0
 11
131.0347341637939
 21
-84.73264165301512
 31
0.0
 11
131.1023821087098
 21
-84.97246828896863
 31
0.0
 11
131.1804418209381
 21
-85.17166401998435
 31
0.0
 11
131.2681293690211
 21
-85.32295383792612
 31
0.0
 11
131.3646608215008
 21
-85.41906273465773
 31
0.0
 11
131.4692522469194
 21
-85.45271570204298
 31
0.0
 11
131.5198029822405
 21
-85.42278057835254
 31
0.0
 11
131.5565541511171
 21
-85.32963814999042
 31
0.0
 11
131.5817593497147
 21
-85.16828283102035
 31
0.0
 11
131.5976721741987
 21
-84.93370903550607
 31
0.0
 11
131.6749035202202
 21
-84.99253252507472
 31
0.0
 11
131.7582136704004
 21
-85.03533549381399
 31
0.0
 11
131.7321318330836
 21
-85.2792704615308
 31
0.0
 11
131.6928270324725
 21
-85.45247531926528
 31
0.0
 11
131.6360655116384
 21
-85.56444162368173
 31
0.0
 11
131.5576135136529
 21
-85.62466093144445
 31
0.0
 11
131.4532372815876
 21
-85.64262479921773
 31
0.0
 11
131.2993547584716
 21
-85.60497994801729
 31
0.0
 11
131.1643854896367
 21
-85.49748085936687
 31
0.0
 11
131.0476692435782
 21
-85.32828073069281
 31
0.0
 11
130.9485457887919
 21
-85.10553275942146
 31
0.0
 11
130.8663548937732
 21
-84.83739014297919
 31
0.0
 11
130.8004363270178
 21
-84.53200607879228
 31
0.0
 11
130.7501298570213
 21
-84.19753376428716
 31
0.0
 11
130.7147752522791
 21
-83.84212639689012
 31
0.0
 11
130.6816887925464
 21
-83.84212639689014
 31
0.0
 11
130.5909678545695
 21
-83.84212639689012
 31
0.0
 11
130.4554201001805
 21
-83.84212639689011
 31
0.0
 11
130.2878531912115
 21
-83.84212639689012
 31
0.0
 11
130.1010747894943
 21
-83.84212639689012
 31
0.0
 11
129.9078925568612
 21
-83.84212639689012
 31
0.0
 11
129.7211141551442
 21
-83.84212639689014
 31
0.0
 11
129.5535472461751
 21
-83.84212639689011
 31
0.0
 11
129.4179994917861
 21
-83.84212639689012
 31
0.0
 11
129.3272785538092
 21
-83.84212639689012
 31
0.0
 11
129.2941920940765
 21
-83.84212639689012
 31
0.0
 11
129.2941920940765
 21
-83.81453945028244
 31
0.0
 11
129.2941920940765
 21
-83.75384816774552
 31
0.0
 11
129.2941920940765
 21
-83.69315688520861
 31
0.0
 11
129.2941920940765
 21
-83.66556993860092
 31
0.0
 11
129.3269675607251
 21
-83.66556993860092
 31
0.0
 11
129.4168357757293
 21
-83.66556993860092
 31
0.0
 11
129.5511094616768
 21
-83.66556993860092
 31
0.0
 11
129.7171013411551
 21
-83.66556993860092
 31
0.0
 11
129.902124136752
 21
-83.66556993860092
 31
0.0
 11
130.0934905710551
 21
-83.66556993860091
 31
0.0
 11
130.278513366652
 21
-83.66556993860092
 31
0.0
 11
130.4445052461304
 21
-83.66556993860092
 31
0.0
 11
130.5787789320779
 21
-83.66556993860092
 31
0.0
 11
130.6686471470821
 21
-83.66556993860092
 31
0.0
 11
130.7014226137307
 21
-83.66556993860092
 31
0.0
 11
130.6914136469723
 21
-83.41507787269131
 31
0.0
 11
130.6854065030283
 21
-83.16258820261558
 31
0.0
 11
130.7115528390279
 21
-83.16398513205966
 31
0.0
 11
130.7739017941038
 21
-83.16731627150328
 31
0.0
 11
130.8483182888719
 21
-83.1712921476134
 31
0.0
 11
130.9106672439478
 21
-83.17462328705702
 31
0.0
 11
130.9368135799474
 21
-83.1760202165011
 31
0.0
 11
130.9237883632659
 21
-83.2043890619801
 31
0.0
 11
130.8806601786024
 21
-83.21874160537925
 31
0.0
 11
130.882994448144
 21
-83.44318764698981
 31
0.0
 11
130.8913405255522
 21
-83.66556993860092
 31
0.0
 11
130.9264015714785
 21
-83.66556993860092
 31
0.0
 11
131.0188352380113
 21
-83.66556993860092
 31
0.0
 11
131.149517318282
 21
-83.66556993860092
 31
0.0
 11
131.2993236054215
 21
-83.66556993860092
 31
0.0
 11
131.449129892561
 21
-83.66556993860092
 31
0.0
 11
131.5798119728317
 21
-83.66556993860092
 31
0.0
 11
131.6722456393645
 21
-83.66556993860092
 31
0.0
 11
131.7073066852908
 21
-83.66556993860092
 31
0.0
 11
131.7073066852908
 21
-83.69315688520861
 31
0.0
 11
131.7073066852908
 21
-83.75384816774552
 31
0.0
 11
131.7073066852908
 21
-83.81453945028244
 31
0.0
 11
131.7073066852908
 21
-83.84212639689012
 31
0.0
  0
SPLINE
  5
AE
102
{ACAD_REACTORS
330
CB
102
}
330
48
100
AcDbEntity
  8
_U_30EC_U_30A4_U_30E4_U_30FC_1
  6
Continuous
 62
     2
100
AcDbSpline
210
0.0
220
0.0
230
1.0
 70
    11
 71
     3
 72
   118
 73
   114
 74
   112
 42
0.000000001
 43
0.0000000001
 44
0.00000001
 40
0.0
 40
0.0
 40
0.0
 40
0.0
 40
0.1054708162973211
 40
0.2466098270052022
 40
0.3965912874591108
 40
0.5285525069753665
 40
0.61562450556421
 40
0.643143410579737
 40
0.7036850037985668
 40
0.7642265984503671
 40
0.7917455052354061
 40
0.9287404319989472
 40
1.106572819088005
 40
1.287544879681004
 40
1.31757830803053
 40
1.399928030857164
 40
1.522968204799919
 40
1.675072986590574
 40
1.844616533180637
 40
2.0199730016387
 40
2.189516548880018
 40
2.34162133158534
 40
2.464661506320478
 40
2.547011229647051
 40
2.577044658168016
 40
2.603797890893044
 40
2.662655002908731
 40
2.721512114949529
 40
2.748265347702666
 40
2.774215307344729
 40
2.845959313407075
 40
2.954338556588279
 40
3.090194227585453
 40
3.244367517100425
 40
3.407699615844176
 40
3.571031714539341
 40
3.725205003920006
 40
3.861060674729511
 40
3.969439917716197
 40
4.041183923628875
 40
4.067133883212872
 40
4.311886746012064
 40
4.547897258335458
 40
4.764747083043911
 40
4.952749679951704
 40
5.045772974195796
 40
5.137862019644923
 40
5.330543169792993
 40
5.553448265243967
 40
5.795083855888128
 40
6.043293412177206
 40
6.285761695541178
 40
6.313902908752705
 40
6.384255941793294
 40
6.475714884766911
 40
6.567173827758988
 40
6.63752686083978
 40
6.665668074074129
 40
6.692018920328091
 40
6.749990782071161
 40
6.807962643790527
 40
6.834313490018014
 40
6.856393084245279
 40
6.913335195649959
 40
6.991194817302637
 40
7.076026942283913
 40
7.15388656372546
 40
7.210828674845
 40
7.232908268931364
 40
7.258199334923883
 40
7.32487578159252
 40
7.419142481925202
 40
7.527204308842125
 40
7.635266135230718
 40
7.729532834168704
 40
7.796209279293019
 40
7.821500344594962
 40
7.844652988851089
 40
7.899863140541783
 40
7.965759128053935
 40
8.02096927977119
 40
8.044121924046642
 40
8.069356610160701
 40
8.109134395441503
 40
8.132238100191218
 40
8.19314786778658
 40
8.279261678876752
 40
8.377977512673953
 40
8.476693347146751
 40
8.56280716041181
 40
8.62371693082659
 40
8.646820636853535
 40
8.671988793774377
 40
8.734909185828245
 40
8.816705695188945
 40
8.898502204815516
 40
8.961422597377963
 40
8.986590754551104
 40
9.012941600733273
 40
9.070913462380334
 40
9.128885324081851
 40
9.155236170325155
 40
9.18040432792917
 40
9.243324721948243
 40
9.325121234212036
 40
9.40691774663769
 40
9.469838141978146
 40
9.495006288270934
 40
9.517811184379076
 40
9.57219209048707
 40
9.637098333281306
 40
9.691479239515507
 40
9.71428412564355
 40
9.71428412564355
 40
9.71428412564355
 40
9.71428412564355
 10
126.9129421548272
 20
-84.1256627162637
 30
0.0
 10
126.9345943088657
 20
-84.15343565571278
 30
0.0
 10
126.9852209629092
 20
-84.21837380252855
 30
0.0
 10
127.0604335722211
 20
-84.32564374501189
 30
0.0
 10
127.1503434793965
 20
-84.44077996547463
 30
0.0
 10
127.1964122196291
 20
-84.54098389065774
 30
0.0
 10
127.2910777814274
 20
-84.61021427999145
 30
0.0
 10
127.2459391840031
 20
-84.65683795135814
 30
0.0
 10
127.2202000305409
 20
-84.6979512594805
 30
0.0
 10
127.1900149227632
 20
-84.73389463086149
 30
0.0
 10
127.1448637250182
 20
-84.80875652218
 30
0.0
 10
127.0965456978181
 20
-84.58672910560485
 30
0.0
 10
127.0223492232692
 20
-84.54944757476378
 30
0.0
 10
126.9090999844225
 20
-84.2784523268349
 30
0.0
 10
126.9140086097788
 20
-84.3936010636786
 30
0.0
 10
126.9123439075925
 20
-84.46618759032467
 30
0.0
 10
126.9131782596333
 20
-84.58829846330103
 30
0.0
 10
126.9128562059883
 20
-84.73541634003631
 30
0.0
 10
126.9130029432075
 20
-84.90148370857534
 30
0.0
 10
126.9127902612341
 20
-85.0726788020549
 30
0.0
 10
126.9134449771652
 20
-85.2390260617859
 30
0.0
 10
126.9114144980758
 20
-85.38520261758399
 30
0.0
 10
126.9168412919549
 20
-85.50984387339474
 30
0.0
 10
126.9059883388327
 20
-85.57736778273464
 30
0.0
 10
126.9211691675174
 20
-85.63906373397069
 30
0.0
 10
126.8712847627753
 20
-85.62727930917089
 30
0.0
 10
126.8272102862141
 20
-85.6351161203412
 30
0.0
 10
126.783732414982
 20
-85.62694993441386
 30
0.0
 10
126.7347299306108
 20
-85.63917378075624
 30
0.0
 10
126.7473683754445
 20
-85.58494767564777
 30
0.0
 10
126.7385135488069
 20
-85.52518515906534
 30
0.0
 10
126.7430011289933
 20
-85.41533405769718
 30
0.0
 10
126.7412912655611
 20
-85.28425459408415
 30
0.0
 10
126.7418503435606
 20
-85.13257423369762
 30
0.0
 10
126.7416881288314
 20
-84.97244359884137
 30
0.0
 10
126.7417222444294
 20
-84.81218569139521
 30
0.0
 10
126.7417467479746
 20
-84.6608518729365
 30
0.0
 10
126.7416406062845
 20
-84.52873278475488
 30
0.0
 10
126.7419251661551
 20
-84.42160632280897
 30
0.0
 10
126.7413628067187
 20
-84.35646815234614
 30
0.0
 10
126.7435717603309
 20
-84.22836476955418
 30
0.0
 10
126.6574388518221
 20
-84.60357824422512
 30
0.0
 10
126.5810093338119
 20
-84.75537241690697
 30
0.0
 10
126.4914993287452
 20
-84.91689228367778
 30
0.0
 10
126.3895365736945
 20
-85.18983585993918
 30
0.0
 10
126.3442929010658
 20
-85.02738088217576
 30
0.0
 10
126.2357308461288
 20
-84.93850002755971
 30
0.0
 10
126.4250744271372
 20
-84.78905639852682
 30
0.0
 10
126.4820293065319
 20
-84.59706297839162
 30
0.0
 10
126.5972473512971
 20
-84.36555811907334
 30
0.0
 10
126.6195104149753
 20
-84.17658175055027
 30
0.0
 10
126.8026857671759
 20
-83.90001345488162
 30
0.0
 10
126.6792986117172
 20
-83.90756455981995
 30
0.0
 10
126.6180636686453
 20
-83.90598662447974
 30
0.0
 10
126.5336952136683
 20
-83.90572842240412
 30
0.0
 10
126.4459187605585
 20
-83.90910589062885
 30
0.0
 10
126.3911721215742
 20
-83.9006061983207
 30
0.0
 10
126.3359655545644
 20
-83.914068737643
 30
0.0
 10
126.3477775555155
 20
-83.86523992687326
 30
0.0
 10
126.3397448671412
 20
-83.82186429917382
 30
0.0
 10
126.3483138624297
 20
-83.77945996504513
 30
0.0
 10
126.3357895928775
 20
-83.73187638261972
 30
0.0
 10
126.3810054058354
 20
-83.7418822181898
 30
0.0
 10
126.4269768082343
 20
-83.73561329640027
 30
0.0
 10
126.503217456733
 20
-83.73861873408217
 30
0.0
 10
126.5816248651613
 20
-83.73684986535544
 30
0.0
 10
126.6578945168553
 20
-83.73990640832432
 30
0.0
 10
126.7037961979094
 20
-83.73351463437912
 30
0.0
 10
126.748668648502
 20
-83.74361611835194
 30
0.0
 10
126.7360504795253
 20
-83.69298233232192
 30
0.0
 10
126.7446889102326
 20
-83.6395417293202
 30
0.0
 10
126.7407314115062
 20
-83.54592179682409
 30
0.0
 10
126.7417277587954
 20
-83.44342828125168
 30
0.0
 10
126.7426879932694
 20
-83.34102164565925
 30
0.0
 10
126.7388163977624
 20
-83.24719505204766
 30
0.0
 10
126.7472742333985
 20
-83.19418891973737
 30
0.0
 10
126.7348028452455
 20
-83.14243999162898
 30
0.0
 10
126.779705890947
 20
-83.15604687587333
 30
0.0
 10
126.8210036356391
 20
-83.15354954493502
 30
0.0
 10
126.885029680067
 20
-83.15807374239606
 30
0.0
 10
126.9241063668404
 20
-83.16674431770775
 30
0.0
 10
126.9731496018361
 20
-83.15940332743406
 30
0.0
 10
126.9480032550209
 20
-83.19852538762329
 30
0.0
 10
126.9070853853343
 20
-83.18891592358281
 30
0.0
 10
126.9165062136223
 20
-83.2391528664431
 30
0.0
 10
126.9110599838365
 20
-83.290694891746
 30
0.0
 10
126.9136652121423
 20
-83.37495727229569
 30
0.0
 10
126.9125054721773
 20
-83.46896299230681
 30
0.0
 10
126.913854358385
 20
-83.56258569418563
 30
0.0
 10
126.9104922621128
 20
-83.64775917261866
 30
0.0
 10
126.9175912437388
 20
-83.69738578742047
 30
0.0
 10
126.9067521674164
 20
-83.74461739844098
 30
0.0
 10
126.9558962744864
 20
-83.73253759877238
 30
0.0
 10
127.0049830149766
 20
-83.74008041451079
 30
0.0
 10
127.082866680026
 20
-83.73769364452657
 30
0.0
 10
127.1605317692515
 20
-83.73556052908674
 30
0.0
 10
127.2100346450973
 20
-83.74262042891635
 30
0.0
 10
127.2599547270258
 20
-83.73095282877874
 30
0.0
 10
127.24781510365
 20
-83.77915199442697
 30
0.0
 10
127.2560790748763
 20
-83.82206215012856
 30
0.0
 10
127.2478151170402
 20
-83.86497232962705
 30
0.0
 10
127.2599547069473
 20
-83.91317146059224
 30
0.0
 10
127.2100347678365
 20
-83.90150400342577
 30
0.0
 10
127.1605303170822
 20
-83.90856232379045
 30
0.0
 10
127.0828736902592
 20
-83.90643769585483
 30
0.0
 10
127.0049596385379
 20
-83.90402045448332
 30
0.0
 10
126.9559452872335
 20
-83.91163586619602
 30
0.0
 10
126.9068198628562
 20
-83.89947482256497
 30
0.0
 10
126.917051250819
 20
-83.9438242138993
 30
0.0
 10
126.9111630197672
 20
-83.98529998611178
 30
0.0
 10
126.9133740825188
 20
-84.04540040498787
 30
0.0
 10
126.9129061865765
 20
-84.092296520512
 30
0.0
 10
126.9129339512532
 20
-84.11805288395894
 30
0.0
 10
126.9129421548272
 20
-84.1256627162637
 30
0.0
 11
126.9129421548272
 21
-84.1256627162637
 31
0.0
 11
126.9771930054103
 21
-84.20930435179832
 31
0.0
 11
127.0603211355118
 21
-84.3233654506587
 31
0.0
 11
127.1471784088515
 21
-84.44563667618365
 31
0.0
 11
127.2226166891491
 21
-84.55390869171214
 31
0.0
 11
127.2714878401245
 21
-84.62597216058299
 31
0.0
 11
127.2551773804712
 21
-84.64813652689689
 31
0.0
 11
127.2192943692339
 21
-84.6968981327875
 31
0.0
 11
127.1834113579966
 21
-84.74565973867809
 31
0.0
 11
127.1671008983433
 21
-84.767824104992
 31
0.0
 11
127.1018019629065
 21
-84.64739295790277
 31
0.0
 11
127.0103386762853
 21
-84.49488451143883
 31
0.0
 11
126.9129421548272
 21
-84.34235646620948
 31
0.0
 11
126.9129421548272
 21
-84.37238989485837
 31
0.0
 11
126.9129421548272
 21
-84.45473961857307
 31
0.0
 11
126.9129421548272
 21
-84.57777979400561
 31
0.0
 11
126.9129421548272
 21
-84.72988457780808
 31
0.0
 11
126.9129421548272
 21
-84.89942812663246
 31
0.0
 11
126.9129421548272
 21
-85.07478459713082
 31
0.0
 11
126.9129421548272
 21
-85.2443281459552
 31
0.0
 11
126.9129421548272
 21
-85.39643292975764
 31
0.0
 11
126.9129421548272
 21
-85.51947310519019
 31
0.0
 11
126.9129421548272
 21
-85.60182282890489
 31
0.0
 11
126.9129421548272
 21
-85.63185625755378
 31
0.0
 11
126.8861889220028
 21
-85.63185625755378
 31
0.0
 11
126.8273318097891
 21
-85.63185625755378
 31
0.0
 11
126.7684746975754
 21
-85.63185625755378
 31
0.0
 11
126.741721464751
 21
-85.63185625755378
 31
0.0
 11
126.741721464751
 21
-85.60590629782841
 31
0.0
 11
126.741721464751
 21
-85.53416229152882
 31
0.0
 11
126.741721464751
 21
-85.42578304796987
 31
0.0
 11
126.741721464751
 21
-85.28992737646642
 31
0.0
 11
126.741721464751
 21
-85.13575408633328
 31
0.0
 11
126.741721464751
 21
-84.97242198688531
 31
0.0
 11
126.741721464751
 21
-84.80908988743732
 31
0.0
 11
126.741721464751
 21
-84.6549165973042
 31
0.0
 11
126.741721464751
 21
-84.51906092580073
 31
0.0
 11
126.741721464751
 21
-84.4106816822418
 31
0.0
 11
126.741721464751
 21
-84.33893767594222
 31
0.0
 11
126.741721464751
 21
-84.31298771621684
 31
0.0
 11
126.6634818381341
 21
-84.54489831511717
 31
0.0
 11
126.5752063308923
 21
-84.76377818485412
 31
0.0
 11
126.4799059449664
 21
-84.95856443480542
 31
0.0
 11
126.3805916822975
 21
-85.11819417434887
 31
0.0
 11
126.3364150862025
 21
-85.0363298861749
 31
0.0
 11
126.2843009903099
 21
-84.96040549383278
 31
0.0
 11
126.3882255109918
 21
-84.79815346887332
 31
0.0
 11
126.4884272384354
 21
-84.59903969392309
 31
0.0
 11
126.580539912752
 21
-84.37564986897894
 31
0.0
 11
126.6601972740531
 21
-84.14056969403771
 31
0.0
 11
126.72303306245
 21
-83.90638486909624
 31
0.0
 11
126.6948918491762
 21
-83.90638486909624
 31
0.0
 11
126.6245388159917
 21
-83.90638486909624
 31
0.0
 11
126.5330798728517
 21
-83.90638486909623
 31
0.0
 11
126.4416209297119
 21
-83.90638486909624
 31
0.0
 11
126.3712678965273
 21
-83.90638486909624
 31
0.0
 11
126.3431266832535
 21
-83.90638486909624
 31
0.0
 11
126.3431266832535
 21
-83.88003402274867
 31
0.0
 11
126.3431266832535
 21
-83.82206216078401
 31
0.0
 11
126.3431266832535
 21
-83.76409029881935
 31
0.0
 11
126.3431266832535
 21
-83.73773945247177
 31
0.0
 11
126.3652062775638
 21
-83.73773945247177
 31
0.0
 11
126.4221483892064
 21
-83.73773945247176
 31
0.0
 11
126.5000080112481
 21
-83.73773945247177
 31
0.0
 11
126.5848401367564
 21
-83.73773945247177
 31
0.0
 11
126.6626997587981
 21
-83.73773945247177
 31
0.0
 11
126.7196418704406
 21
-83.73773945247177
 31
0.0
 11
126.741721464751
 21
-83.73773945247177
 31
0.0
 11
126.741721464751
 21
-83.71244838639737
 31
0.0
 11
126.741721464751
 21
-83.64577193947393
 31
0.0
 11
126.741721464751
 21
-83.55150523865112
 31
0.0
 11
126.741721464751
 21
-83.44344341087866
 31
0.0
 11
126.741721464751
 21
-83.33538158310617
 31
0.0
 11
126.741721464751
 21
-83.24111488228338
 31
0.0
 11
126.741721464751
 21
-83.17443843535995
 31
0.0
 11
126.741721464751
 21
-83.14914736928553
 31
0.0
 11
126.7648134508286
 21
-83.1508222170629
 31
0.0
 11
126.8198789560904
 21
-83.15481608483968
 31
0.0
 11
126.8856023010803
 21
-83.15958295928294
 31
0.0
 11
126.9406678063421
 21
-83.16357682705973
 31
0.0
 11
126.9637597924197
 21
-83.16525167483708
 31
0.0
 11
126.9503965163981
 21
-83.18665756892898
 31
0.0
 11
126.9129421548272
 21
-83.2000532026062
 31
0.0
 11
126.9129421548272
 21
-83.22315690865511
 31
0.0
 11
126.9129421548272
 21
-83.2840666791477
 31
0.0
 11
126.9129421548272
 21
-83.37018049260273
 31
0.0
 11
126.9129421548272
 21
-83.46889632753897
 31
0.0
 11
126.9129421548272
 21
-83.56761216247524
 31
0.0
 11
126.9129421548272
 21
-83.65372597593029
 31
0.0
 11
126.9129421548272
 21
-83.71463574642286
 31
0.0
 11
126.9129421548272
 21
-83.73773945247177
 31
0.0
 11
126.9381103124428
 21
-83.73773945247177
 31
0.0
 11
127.0010307064818
 21
-83.73773945247177
 31
0.0
 11
127.0828272187325
 21
-83.73773945247177
 31
0.0
 11
127.1646237309831
 21
-83.73773945247177
 31
0.0
 11
127.2275441250221
 21
-83.73773945247177
 31
0.0
 11
127.2527122826377
 21
-83.73773945247177
 31
0.0
 11
127.2527122826377
 21
-83.76409029881935
 31
0.0
 11
127.2527122826377
 21
-83.822062160784
 31
0.0
 11
127.2527122826377
 21
-83.88003402274867
 31
0.0
 11
127.2527122826377
 21
-83.90638486909624
 31
0.0
 11
127.2275441250221
 21
-83.90638486909623
 31
0.0
 11
127.1646237309831
 21
-83.90638486909624
 31
0.0
 11
127.0828272187324
 21
-83.90638486909623
 31
0.0
 11
127.0010307064818
 21
-83.90638486909624
 31
0.0
 11
126.9381103124428
 21
-83.90638486909623
 31
0.0
 11
126.9129421548272
 21
-83.90638486909624
 31
0.0
 11
126.9129421548272
 21
-83.92918976520166
 31
0.0
 11
126.9129421548272
 21
-83.98357067129918
 31
0.0
 11
126.9129421548272
 21
-84.04847691406076
 31
0.0
 11
126.9129421548272
 21
-84.10285782015829
 31
0.0
 11
126.9129421548272
 21
-84.1256627162637
 31
0.0
  0
SPLINE
  5
AF
102
{ACAD_REACTORS
330
CC
102
}
330
48
100
AcDbEntity
  8
_U_30EC_U_30A4_U_30E4_U_30FC_1
  6
Continuous
 62
     2
100
AcDbSpline
210
0.0
220
0.0
230
1.0
 70
    11
 71
     3
 72
    47
 73
    43
 74
    41
 42
0.000000001
 43
0.0000000001
 44
0.00000001
 40
0.0
 40
0.0
 40
0.0
 40
0.0
 40
0.2207912809957237
 40
0.4459404186302952
 40
0.4902387190458339
 40
0.5327473892722138
 40
0.5742260451224597
 40
0.6155432630559469
 40
0.6568164066314671
 40
0.6982511618779592
 40
0.7407663929316138
 40
0.7851366743174167
 40
1.010288833836222
 40
1.231080507002062
 40
1.451765243652284
 40
1.676638205891575
 40
1.720461045359553
 40
1.830018144043404
 40
1.97244237235304
 40
2.114866600677399
 40
2.224423699395029
 40
2.268246538883272
 40
2.49362880120711
 40
2.715602830286513
 40
2.934211330706261
 40
3.14950236985526
 40
3.231387784850877
 40
3.31823187385397
 40
3.405143198197929
 40
3.486970301720267
 40
3.702258172493692
 40
3.920866283533923
 40
4.142839325931718
 40
4.368221903865185
 40
4.412044743359652
 40
4.521601842095671
 40
4.66402607045216
 40
4.806450298808863
 40
4.916007397546559
 40
4.959830237042874
 40
5.184703515846913
 40
5.405387250767294
 40
5.405387250767294
 40
5.405387250767294
 40
5.405387250767294
 10
124.2762379778264
 20
-83.66048993860217
 30
0.0
 10
124.2823091939621
 20
-83.59696952312878
 30
0.0
 10
124.2945714626862
 20
-83.46867496124469
 30
0.0
 10
124.1859659399031
 20
-83.19289214640006
 30
0.0
 10
124.3016938416224
 20
-83.22267301382041
 30
0.0
 10
124.3426795028635
 20
-83.22689878551266
 30
0.0
 10
124.3846158317137
 20
-83.23144988424482
 30
0.0
 10
124.4259149145329
 20
-83.23253451884605
 30
0.0
 10
124.4671984635175
 20
-83.23145096618863
 30
0.0
 10
124.5091100790266
 20
-83.22689322102748
 30
0.0
 10
124.5500936068638
 20
-83.22268004604358
 30
0.0
 10
124.6659875363107
 20
-83.19277823496563
 30
0.0
 10
124.5550605247075
 20
-83.47115628204196
 30
0.0
 10
124.5829808884886
 20
-83.65172293989139
 30
0.0
 10
124.5659219866587
 20
-83.88494392467615
 30
0.0
 10
124.5669589801723
 20
-84.04548812270947
 30
0.0
 10
124.5669051919023
 20
-84.17170617255366
 30
0.0
 10
124.56692298921
 20
-84.27026471477852
 30
0.0
 10
124.5669141100699
 20
-84.40174732371122
 30
0.0
 10
124.5669216447652
 20
-84.5332258984544
 30
0.0
 10
124.5669081924748
 20
-84.6317921212
 30
0.0
 10
124.5669484237111
 20
-84.75815699189937
 30
0.0
 10
124.5661698923436
 20
-84.9197336599122
 30
0.0
 10
124.5820910838885
 20
-85.15093612921174
 30
0.0
 10
124.5588421405026
 20
-85.33581082842089
 30
0.0
 10
124.6615135963985
 20
-85.60519832044032
 30
0.0
 10
124.5075190882455
 20
-85.56795322128272
 30
0.0
 10
124.4259082322451
 20
-85.57317440133555
 30
0.0
 10
124.3443144812202
 20
-85.56794814435736
 30
0.0
 10
124.1903466186463
 20
-85.60518364928703
 30
0.0
 10
124.2929135941536
 20
-85.33580304951208
 30
0.0
 10
124.2696997835707
 20
-85.15093849488676
 30
0.0
 10
124.2855397174757
 20
-84.91973216248452
 30
0.0
 10
124.2848248833047
 20
-84.75815722505587
 30
0.0
 10
124.2848617089525
 20
-84.6317920360357
 30
0.0
 10
124.284850151989
 20
-84.53322678178111
 30
0.0
 10
124.2848527538833
 20
-84.4017430739687
 30
0.0
 10
124.2848601051398
 20
-84.2702788678289
 30
0.0
 10
124.284839506097
 20
-84.17167648538764
 30
0.0
 10
124.2849034711647
 20
-84.04559285459665
 30
0.0
 10
124.2836686467209
 20
-83.88245343430316
 30
0.0
 10
124.2786992916364
 20
-83.73401251036542
 30
0.0
 10
124.2762379778264
 20
-83.66048993860217
 30
0.0
 11
124.2762379778264
 21
-83.66048993860217
 31
0.0
 11
124.2672280719998
 21
-83.43988256018511
 31
0.0
 11
124.2573722225766
 21
-83.2149492442691
 31
0.0
 11
124.301193836042
 21
-83.22143043350361
 31
0.0
 11
124.3433353453835
 21
-83.22700542482166
 31
0.0
 11
124.384632392941
 21
-83.23088267308458
 31
0.0
 11
124.4259294404984
 21
-83.23217361926483
 31
0.0
 11
124.4671823908349
 21
-83.2308826730846
 31
0.0
 11
124.5084353411716
 21
-83.22700542482166
 31
0.0
 11
124.5505834650962
 21
-83.2214304335036
 31
0.0
 11
124.5944778389764
 21
-83.2149492442691
 31
0.0
 11
124.584553021351
 21
-83.43988256018513
 31
0.0
 11
124.5755336727929
 21
-83.66048993860217
 31
0.0
 11
124.5690590983054
 21
-83.88107967813035
 31
0.0
 11
124.5669170757905
 21
-84.10594243849083
 31
0.0
 11
124.5669170757905
 21
-84.14976527798605
 31
0.0
 11
124.5669170757905
 21
-84.25932237672407
 31
0.0
 11
124.5669170757905
 21
-84.40174660508352
 31
0.0
 11
124.5669170757905
 21
-84.54417083344296
 31
0.0
 11
124.5669170757905
 21
-84.653727932181
 31
0.0
 11
124.5669170757905
 21
-84.69755077167622
 31
0.0
 11
124.5690590983054
 21
-84.92292285495323
 31
0.0
 11
124.5755336727929
 21
-85.1448024382311
 31
0.0
 11
124.5845530213511
 21
-85.3632247992876
 31
0.0
 11
124.5944778389764
 21
-85.57828695201162
 31
0.0
 11
124.512756868839
 21
-85.57310001624904
 31
0.0
 11
124.4259294404984
 21
-85.57139896590228
 31
0.0
 11
124.3390347638958
 21
-85.57310001624903
 31
0.0
 11
124.2573722225766
 21
-85.57828695201162
 31
0.0
 11
124.2672280719998
 21
-85.36322479928761
 31
0.0
 11
124.2762379778264
 21
-85.1448024382311
 31
0.0
 11
124.2826786358417
 21
-84.92292285495323
 31
0.0
 11
124.2848536107642
 21
-84.69755077167622
 31
0.0
 11
124.2848536107642
 21
-84.65372793218101
 31
0.0
 11
124.2848536107642
 21
-84.54417083344298
 31
0.0
 11
124.2848536107642
 21
-84.40174660508352
 31
0.0
 11
124.2848536107642
 21
-84.25932237672407
 31
0.0
 11
124.2848536107642
 21
-84.14976527798603
 31
0.0
 11
124.2848536107642
 21
-84.10594243849083
 31
0.0
 11
124.2826786358417
 21
-83.88107967813035
 31
0.0
 11
124.2762379778264
 21
-83.66048993860217
 31
0.0
  0
SPLINE
  5
B0
102
{ACAD_REACTORS
330
CD
102
}
330
48
100
AcDbEntity
  8
_U_30EC_U_30A4_U_30E4_U_30FC_1
  6
Continuous
 62
     2
100
AcDbSpline
210
0.0
220
0.0
230
1.0
 70
    11
 71
     3
 72
   110
 73
   106
 74
   104
 42
0.000000001
 43
0.0000000001
 44
0.00000001
 40
0.0
 40
0.0
 40
0.0
 40
0.0
 40
0.2203406257277826
 40
0.4407808782838122
 40
0.5952494494614958
 40
0.7488431659393106
 40
0.9023581831309372
 40
1.056801968670422
 40
1.210736449099922
 40
1.363041386539886
 40
1.515315729683172
 40
1.669377239148066
 40
1.721611652756566
 40
1.773199502942947
 40
1.824933793209976
 40
1.877110426487965
 40
1.982682281206714
 40
2.078781667087522
 40
2.172809640822287
 40
2.271937807378913
 40
2.378349933379292
 40
2.494131557736494
 40
2.626681683943586
 40
2.783145050795957
 40
2.890701232940823
 40
2.993130312454725
 40
3.099869730691699
 40
3.220237816691191
 40
3.35269548273748
 40
3.481732806389735
 40
3.593499473690257
 40
3.674323013331779
 40
3.817951711952715
 40
3.946167120793727
 40
4.061405053453454
 40
4.166480796003065
 40
4.262478775059188
 40
4.350736673551173
 40
4.433071991254002
 40
4.511216293814547
 40
4.564262454117859
 40
4.618474415571484
 40
4.67012848875407
 40
4.722296879126271
 40
4.819540945314156
 40
4.931194984127983
 40
5.049996040257653
 40
5.168643755415185
 40
5.283970811762439
 40
5.392260784910222
 40
5.486512254876269
 40
5.55917823394971
 40
5.591425852853379
 40
5.62621596963777
 40
5.667155838674301
 40
5.717449290214122
 40
5.738402360944721
 40
5.784499116553707
 40
5.830595872164682
 40
5.851548942897526
 40
5.873019280661626
 40
5.92421777840818
 40
5.985325662817561
 40
6.036524160567569
 40
6.057994498334099
 40
6.236847789607359
 40
6.381409928945532
 40
6.493190424178541
 40
6.574067534230379
 40
6.691018086205417
 40
6.814881554220391
 40
6.944307823240287
 40
7.071266716065882
 40
7.193488604461685
 40
7.30904277312794
 40
7.414007203170607
 40
7.505140441886418
 40
7.531150360599583
 40
7.559221645322165
 40
7.587202218920829
 40
7.612569159499023
 40
7.66255080948091
 40
7.702878875764054
 40
7.857328205230869
 40
8.010799568088485
 40
8.165256399657492
 40
8.322232698713902
 40
8.479564855016518
 40
8.635216230290807
 40
8.790882550925682
 40
8.948305154947276
 40
9.168271839032963
 40
9.387358980987239
 40
9.608047961033485
 40
9.832914234792693
 40
9.85833869496302
 40
9.925366817230024
 40
10.02013071422762
 40
10.12876249859
 40
10.2373942829525
 40
10.33215817995193
 40
10.39918630222396
 40
10.42461076239784
 40
10.64992019336944
 40
10.87188524531189
 40
10.87188524531189
 40
10.87188524531189
 40
10.87188524531189
 10
121.5312740896237
 20
-83.655321744159
 30
0.0
 10
121.534781745316
 20
-83.58838972740286
 30
0.0
 10
121.5417986507282
 20
-83.45449542898231
 30
0.0
 10
121.4452980118691
 20
-83.1690687984262
 30
0.0
 10
121.6765087245727
 20
-83.23171048623809
 30
0.0
 10
121.8174242576775
 20
-83.22453880758097
 30
0.0
 10
121.9745370277207
 20
-83.23219551735846
 30
0.0
 10
122.1280865946907
 20
-83.23202682531048
 30
0.0
 10
122.28000574547
 20
-83.23273394278655
 30
0.0
 10
122.4397167332851
 20
-83.2224527646245
 30
0.0
 10
122.5663925120737
 20
-83.23958923733336
 30
0.0
 10
122.7625773641699
 20
-83.16728174706947
 30
0.0
 10
122.7289347798697
 20
-83.26814735733973
 30
0.0
 10
122.7306963836802
 20
-83.31836180866419
 30
0.0
 10
122.7282294593078
 20
-83.36743099227621
 30
0.0
 10
122.760202948563
 20
-83.45391943967093
 30
0.0
 10
122.6265352422875
 20
-83.40457996205753
 30
0.0
 10
122.5427161207676
 20
-83.41024800499923
 30
0.0
 10
122.4428813658943
 20
-83.3998991810779
 30
0.0
 10
122.3441529239765
 20
-83.39368984403002
 30
0.0
 10
122.2376485290729
 20
-83.38757670997309
 30
0.0
 10
122.1165464217679
 20
-83.37866551329506
 30
0.0
 10
121.9958334022072
 20
-83.389338289017
 30
0.0
 10
121.8067506363057
 20
-83.32986931733726
 30
0.0
 10
121.838398102493
 20
-83.4889711473655
 30
0.0
 10
121.8250515836453
 20
-83.58616306474184
 30
0.0
 10
121.8229910946068
 20
-83.69821369703988
 30
0.0
 10
121.821314056429
 20
-83.81755749184738
 30
0.0
 10
121.8228289313851
 20
-83.94422842658975
 30
0.0
 10
121.8211534998289
 20
-84.0715384679797
 30
0.0
 10
121.8313796791277
 20
-84.17003868409628
 30
0.0
 10
121.8033959116201
 20
-84.31066732188458
 30
0.0
 10
121.9762982518924
 20
-84.25465883679995
 30
0.0
 10
122.089997272239
 20
-84.26735483335591
 30
0.0
 10
122.2095104191858
 20
-84.26007057762834
 30
0.0
 10
122.3143443944691
 20
-84.25577417757334
 30
0.0
 10
122.4098037418231
 20
-84.25124866555113
 30
0.0
 10
122.5018776026652
 20
-84.24306233667892
 30
0.0
 10
122.5731504302059
 20
-84.24811584175976
 30
0.0
 10
122.6799884225304
 20
-84.20919009782418
 30
0.0
 10
122.6481556117655
 20
-84.2893831280821
 30
0.0
 10
122.6521117023548
 20
-84.33892497968054
 30
0.0
 10
122.6489454911632
 20
-84.38897956774271
 30
0.0
 10
122.6805744010204
 20
-84.47326587202068
 30
0.0
 10
122.5465086197311
 20
-84.42030069318932
 30
0.0
 10
122.4547275312819
 20
-84.42915353923647
 30
0.0
 10
122.3334681709222
 20
-84.41885384848936
 30
0.0
 10
122.2169065639391
 20
-84.41706523046588
 30
0.0
 10
122.1038328265497
 20
-84.41668417704398
 30
0.0
 10
121.993419882809
 20
-84.4103998534191
 30
0.0
 10
121.9153076587459
 20
-84.42266301558726
 30
0.0
 10
121.8168578353263
 20
-84.39001547197964
 30
0.0
 10
121.8267307693179
 20
-84.44685686759883
 30
0.0
 10
121.8228875764022
 20
-84.48063304256105
 30
0.0
 10
121.8221742403886
 20
-84.52335830104678
 30
0.0
 10
121.8218322162594
 20
-84.56053827551935
 30
0.0
 10
121.8218786774965
 20
-84.59968197443321
 30
0.0
 10
121.8218601949545
 20
-84.63738585316403
 30
0.0
 10
121.8218655951426
 20
-84.67510479581688
 30
0.0
 10
121.821864973382
 20
-84.7046111006894
 30
0.0
 10
121.8218650671164
 20
-84.73581857114786
 30
0.0
 10
121.821865680754
 20
-84.78041009906003
 30
0.0
 10
121.8218624018955
 20
-84.8349147830524
 30
0.0
 10
121.82187121431
 20
-84.8794989461264
 30
0.0
 10
121.8218312173036
 20
-84.96337626228355
 30
0.0
 10
121.8230976789874
 20
-85.07717914136413
 30
0.0
 10
121.8205226637461
 20
-85.22625038880378
 30
0.0
 10
121.8319961901338
 20
-85.32858231000183
 30
0.0
 10
121.8078458741884
 20
-85.46116530928255
 30
0.0
 10
121.9587946466095
 20
-85.41559702542065
 30
0.0
 10
122.0683389191175
 20
-85.4302842265174
 30
0.0
 10
122.198892299354
 20
-85.42534999689025
 30
0.0
 10
122.3245264729133
 20
-85.42197729490731
 30
0.0
 10
122.4443683145219
 20
-85.41743937315313
 30
0.0
 10
122.5646315131046
 20
-85.40406898632087
 30
0.0
 10
122.6477714183134
 20
-85.4138672203149
 30
0.0
 10
122.7711032940696
 20
-85.35329220190773
 30
0.0
 10
122.7499221723575
 20
-85.40922974680068
 30
0.0
 10
122.7490902789736
 20
-85.43516185441743
 30
0.0
 10
122.7473916227177
 20
-85.46258178623151
 30
0.0
 10
122.7472927408448
 20
-85.49717239607703
 30
0.0
 10
122.7458611820949
 20
-85.53405026593322
 30
0.0
 10
122.7787756711811
 20
-85.62608593792281
 30
0.0
 10
122.5806259507727
 20
-85.5532341883926
 30
0.0
 10
122.4555500814511
 20
-85.57629708305485
 30
0.0
 10
122.2928023814776
 20
-85.57001412828308
 30
0.0
 10
122.138431896962
 20
-85.5719449090416
 30
0.0
 10
121.9821622956563
 20
-85.57061672214822
 30
0.0
 10
121.8225496984901
 20
-85.57395562326228
 30
0.0
 10
121.6795278861856
 20
-85.56189639085848
 30
0.0
 10
121.4452097401247
 20
-85.62503432837174
 30
0.0
 10
121.5428763270817
 20
-85.33834907347773
 30
0.0
 10
121.5261821299677
 20
-85.1446712667143
 30
0.0
 10
121.5401249229303
 20
-84.9160719193379
 30
0.0
 10
121.5397940366253
 20
-84.76070840859049
 30
0.0
 10
121.5398030638883
 20
-84.65489098369962
 30
0.0
 10
121.5398008395936
 20
-84.59249650689875
 30
0.0
 10
121.5398018071509
 20
-84.5023500956576
 30
0.0
 10
121.5398017992881
 20
-84.39834267656651
 30
0.0
 10
121.5398006380722
 20
-84.2943330343879
 30
0.0
 10
121.5398043491123
 20
-84.20419191125322
 30
0.0
 10
121.5397963570671
 20
-84.14178631716874
 30
0.0
 10
121.5398286794639
 20
-84.03586598852971
 30
0.0
 10
121.5386393307938
 20
-83.87828718269347
 30
0.0
 10
121.5337169008875
 20
-83.72927214992025
 30
0.0
 10
121.5312740896237
 20
-83.655321744159
 30
0.0
 11
121.5312740896237
 21
-83.655321744159
 31
0.0
 11
121.5221870743359
 21
-83.43516856713072
 31
0.0
 11
121.5123202092752
 21
-83.2149492442691
 31
0.0
 11
121.6666527661019
 21
-83.22143043350361
 31
0.0
 11
121.8201452708665
 21
-83.22700542482166
 31
0.0
 11
121.9736113172985
 21
-83.23088267308458
 31
0.0
 11
122.1280497074558
 21
-83.23217361926483
 31
0.0
 11
122.2819787747092
 21
-83.2308826730846
 31
0.0
 11
122.434234352422
 21
-83.22700542482166
 31
0.0
 11
122.5864066070693
 21
-83.2214304335036
 31
0.0
 11
122.7403317282102
 21
-83.2149492442691
 31
0.0
 11
122.7325764222742
 21
-83.26660473036732
 31
0.0
 11
122.729994414321
 21
-83.31812792479886
 31
0.0
 11
122.7325764222742
 21
-83.36979774249428
 31
0.0
 11
122.7403317282102
 21
-83.42139479977305
 31
0.0
 11
122.634982657403
 21
-83.41453988658031
 31
0.0
 11
122.5391328219679
 21
-83.40761882755433
 31
0.0
 11
122.4453545691522
 21
-83.4007705289449
 31
0.0
 11
122.34646324355
 21
-83.39392223033549
 31
0.0
 11
122.2402484719543
 21
-83.38744434839265
 31
0.0
 11
122.1246013047657
 21
-83.38186604978296
 31
0.0
 11
121.9921078966877
 21
-83.37798880152
 31
0.0
 11
121.8356498538043
 21
-83.37669785533977
 31
0.0
 11
121.831761581334
 21
-83.48418373204903
 31
0.0
 11
121.8270332568019
 21
-83.58650361917626
 31
0.0
 11
121.8231560086368
 21
-83.69317259484401
 31
0.0
 11
121.8218650624891
 21
-83.81353375800839
 31
0.0
 11
121.8222751666455
 21
-83.94599078922525
 31
0.0
 11
121.8235848541121
 21
-84.07502146627634
 31
0.0
 11
121.8249027096668
 21
-84.1867803638178
 31
0.0
 11
121.8253143673279
 21
-84.26760285511705
 31
0.0
 11
121.9689405455493
 21
-84.26675177872839
 31
0.0
 11
122.0971296450377
 21
-84.26415445234012
 31
0.0
 11
122.2123030741415
 21
-84.26029925268836
 31
0.0
 11
122.3172708831839
 21
-84.25553785512014
 31
0.0
 11
122.4131298809041
 21
-84.25037407039915
 31
0.0
 11
122.5012365893813
 21
-84.24521028567823
 31
0.0
 11
122.5833833958116
 21
-84.2396419089435
 31
0.0
 11
122.661264485519
 21
-84.23323348012565
 31
0.0
 11
122.6535132964805
 21
-84.28571027698753
 31
0.0
 11
122.6509280968936
 21
-84.33986056343232
 31
0.0
 11
122.6535132964805
 21
-84.39144990369722
 31
0.0
 11
122.661264485519
 21
-84.44303924396208
 31
0.0
 11
122.5644765973633
 21
-84.43363110160331
 31
0.0
 11
122.4530903241634
 21
-84.42590306341077
 31
0.0
 11
122.3344213948992
 21
-84.42030161375945
 31
0.0
 11
122.2158119968832
 21
-84.41728646619079
 31
0.0
 11
122.100497763714
 21
-84.41556667452453
 31
0.0
 11
121.9922214470319
 21
-84.41384688285832
 31
0.0
 11
121.8979791837327
 21
-84.41252947834474
 31
0.0
 11
121.8253143673279
 21
-84.4121182717476
 31
0.0
 11
121.8249027096668
 21
-84.44436326305899
 31
0.0
 11
121.8235848541121
 21
-84.47912841061972
 31
0.0
 11
121.8222751666455
 21
-84.52004732554005
 31
0.0
 11
121.8218650624891
 21
-84.57033910504138
 31
0.0
 11
121.8218650624891
 21
-84.59129217578267
 31
0.0
 11
121.8218650624891
 21
-84.63738893141354
 31
0.0
 11
121.8218650624891
 21
-84.6834856870444
 31
0.0
 11
121.8218650624891
 21
-84.70443875778568
 31
0.0
 11
121.8218650624891
 21
-84.72590909555808
 31
0.0
 11
121.8218650624891
 21
-84.77710759332305
 31
0.0
 11
121.8218650624891
 21
-84.83821547775221
 31
0.0
 11
121.8218650624891
 21
-84.88941397551717
 31
0.0
 11
121.8218650624891
 21
-84.91088431328959
 31
0.0
 11
121.8222751666455
 21
-85.08973713442542
 31
0.0
 11
121.8235848541121
 21
-85.23429334098647
 31
0.0
 11
121.8257821109328
 21
-85.34605223852799
 31
0.0
 11
121.8287539506605
 21
-85.42687472982725
 31
0.0
 11
121.9457045037067
 21
-85.42687472982723
 31
0.0
 11
122.0695679728366
 21
-85.42687472982725
 31
0.0
 11
122.1989878046041
 21
-85.42558378364699
 31
0.0
 11
122.3258874801863
 21
-85.42170653538408
 31
0.0
 11
122.4479610587592
 21
-85.41568726455225
 31
0.0
 11
122.5632540019082
 21
-85.40792174372088
 31
0.0
 11
122.6676707093138
 21
-85.39721273330687
 31
0.0
 11
122.7575551775068
 21
-85.38217778539398
 31
0.0
 11
122.751920655081
 21
-85.40757006837374
 31
0.0
 11
122.7489385805042
 21
-85.43548250760287
 31
0.0
 11
122.7476292400819
 21
-85.46343242947087
 31
0.0
 11
122.7472187888814
 21
-85.48879604925617
 31
0.0
 11
122.7498039884683
 21
-85.53871079750763
 31
0.0
 11
122.7575551775068
 21
-85.57828695201162
 31
0.0
 11
122.6031929697964
 21
-85.57310001624904
 31
0.0
 11
122.4497310338385
 21
-85.57139896590228
 31
0.0
 11
122.2952742016103
 21
-85.57139896590228
 31
0.0
 11
122.1382979016387
 21
-85.57139896590228
 31
0.0
 11
121.9809657441156
 21
-85.57139896590228
 31
0.0
 11
121.8253143673279
 21
-85.57139896590228
 31
0.0
 11
121.669657339386
 21
-85.57310001624903
 31
0.0
 11
121.5123202092752
 21
-85.57828695201162
 31
0.0
 11
121.5221870743359
 21
-85.3585416742888
 31
0.0
 11
121.5312740896237
 21
-85.13964306323238
 31
0.0
 11
121.537667403802
 21
-84.91904670912086
 31
0.0
 11
121.5398015974629
 21
-84.69419056334374
 31
0.0
 11
121.5398015974629
 21
-84.66876610317215
 31
0.0
 11
121.5398015974629
 21
-84.60173798090158
 31
0.0
 11
121.5398015974629
 21
-84.50697408389836
 31
0.0
 11
121.5398015974629
 21
-84.3983422995288
 31
0.0
 11
121.5398015974629
 21
-84.28971051515927
 31
0.0
 11
121.5398015974629
 21
-84.19494661815605
 31
0.0
 11
121.5398015974629
 21
-84.12791849588548
 31
0.0
 11
121.5398015974629
 21
-84.10249403571389
 31
0.0
 11
121.537667403802
 21
-83.87719471285354
 31
0.0
 11
121.5312740896237
 21
-83.655321744159
 31
0.0
  0
SPLINE
  5
B1
102
{ACAD_REACTORS
330
CE
102
}
330
48
100
AcDbEntity
  8
_U_30EC_U_30A4_U_30E4_U_30FC_1
  6
Continuous
 62
     2
100
AcDbSpline
210
0.0
220
0.0
230
1.0
 70
    11
 71
     3
 72
    95
 73
    91
 74
    89
 42
0.000000001
 43
0.0000000001
 44
0.00000001
 40
0.0
 40
0.0
 40
0.0
 40
0.0
 40
0.6550406656911618
 40
1.308087289031943
 40
1.420803739835806
 40
1.566130759770799
 40
1.757067341888464
 40
2.006513545026467
 40
2.087328263121551
 40
2.18532887229562
 40
2.294612454748388
 40
2.408936380534816
 40
2.52680276779857
 40
2.646360524615611
 40
2.762535723971598
 40
2.870057342870169
 40
2.966883448431657
 40
3.050803243518303
 40
3.115818222436611
 40
3.156030057150244
 40
3.213914225080173
 40
3.276689026450559
 40
3.342960320981293
 40
3.404230667150487
 40
3.453822809493281
 40
3.532499827188334
 40
3.634775188507099
 40
3.754909333008073
 40
3.889736761660574
 40
4.035769602175128
 40
4.18725668119751
 40
4.33873368567586
 40
4.488478734676025
 40
4.634708317831495
 40
4.771493189921187
 40
4.892686571561122
 40
5.199775528944349
 40
5.460353566929559
 40
5.667603142345421
 40
5.814722905404391
 40
5.828990806219732
 40
5.855488336304386
 40
5.869756237118718
 40
6.189796507762738
 40
6.531890469872986
 40
6.883053637016927
 40
7.230512024911447
 40
7.566966656764477
 40
7.885203559707368
 40
8.172887439719164
 40
8.41801159406265
 40
8.443926721190566
 40
8.510760470613066
 40
8.602145393795569
 40
8.701714041646996
 40
8.793098965075247
 40
8.85993271505781
 40
8.885847842603456
 40
9.242301256612677
 40
9.589275455016635
 40
9.921808543164037
 40
10.23479624298454
 40
10.29968150889167
 40
10.35323493887762
 40
10.40154625355141
 40
10.46482922477808
 40
10.55973900668387
 40
10.692395459856
 40
10.84920353475655
 40
11.01626328594762
 40
11.18672024367426
 40
11.35372582577192
 40
11.5025744229241
 40
11.61866495023274
 40
11.71329869152858
 40
11.82511050573889
 40
11.94464880845696
 40
12.0692924264249
 40
12.19707290435158
 40
12.32562632860512
 40
12.45034565331261
 40
12.5664659517031
 40
12.67099007414616
 40
12.76077625936764
 40
12.82703233506677
 40
12.87429132785975
 40
12.89831990323315
 40
12.92234847860002
 40
13.53984767410304
 40
14.18294284359347
 40
14.18294284359347
 40
14.18294284359347
 40
14.18294284359347
 10
118.932288816764
 20
-84.68557396612366
 30
0.0
 10
118.8006972278169
 20
-84.57190376210859
 30
0.0
 10
118.5379146322347
 20
-84.34490938497933
 30
0.0
 10
118.025234596064
 20
-83.50240971857801
 30
0.0
 10
118.0361607114981
 20
-83.86032057237071
 30
0.0
 10
118.0296179047612
 20
-84.00188042541957
 30
0.0
 10
118.028297915139
 20
-84.20034129514806
 30
0.0
 10
118.0273070122157
 20
-84.3730513876811
 30
0.0
 10
118.0279054271593
 20
-84.51590061556509
 30
0.0
 10
118.0293946821502
 20
-84.6119042940073
 30
0.0
 10
118.0310636108091
 20
-84.7190993155095
 30
0.0
 10
118.0326887474239
 20
-84.83291223296507
 30
0.0
 10
118.0347382021304
 20
-84.95013862209501
 30
0.0
 10
118.0378118021545
 20
-85.06799023581121
 30
0.0
 10
118.0411292216662
 20
-85.1822734749347
 30
0.0
 10
118.04485578599
 20
-85.28934032946815
 30
0.0
 10
118.0472290681043
 20
-85.38448026047168
 30
0.0
 10
118.0533671407976
 20
-85.46896877608398
 30
0.0
 10
118.0494737015565
 20
-85.52532347515947
 30
0.0
 10
118.0710182962697
 20
-85.59630412341734
 30
0.0
 10
117.9935892578237
 20
-85.5655275720961
 30
0.0
 10
117.937130575981
 20
-85.57444192296478
 30
0.0
 10
117.8795448416426
 20
-85.56559216415809
 30
0.0
 10
117.7945115998093
 20
-85.59717209588146
 30
0.0
 10
117.8264666666001
 20
-85.51360278821898
 30
0.0
 10
117.8245657802158
 20
-85.44572825845782
 30
0.0
 10
117.8362912566919
 20
-85.34222178049669
 30
0.0
 10
117.8419193572618
 20
-85.22453309197392
 30
0.0
 10
117.8492854698561
 20
-85.09066825649667
 30
0.0
 10
117.8575712221229
 20
-84.94691281941456
 30
0.0
 10
117.8653804417046
 20
-84.79741411970645
 30
0.0
 10
117.8712523742276
 20
-84.64662885412012
 30
0.0
 10
117.8758620337588
 20
-84.49755490935652
 30
0.0
 10
117.8797584637161
 20
-84.35332521651065
 30
0.0
 10
117.8825667646184
 20
-84.21871529601074
 30
0.0
 10
117.8831651274641
 20
-84.02985820466735
 30
0.0
 10
117.8870976386769
 20
-83.80479940500936
 30
0.0
 10
117.8697127898117
 20
-83.5308834368838
 30
0.0
 10
117.9105369862203
 20
-83.36668322715491
 30
0.0
 10
117.825010577562
 20
-83.16705773348994
 30
0.0
 10
117.8915511427307
 20
-83.17069976410112
 30
0.0
 10
117.9093676792849
 20
-83.17041987653236
 30
0.0
 10
118.0311754317123
 20
-83.16822507415468
 30
0.0
 10
118.133572285508
 20
-83.44780316092584
 30
0.0
 10
118.3834974028976
 20
-83.64892426278082
 30
0.0
 10
118.6124987850729
 20
-83.91662819826179
 30
0.0
 10
118.8500103732729
 20
-84.16809020951709
 30
0.0
 10
119.0741043260391
 20
-84.40485460752735
 30
0.0
 10
119.300566880263
 20
-84.6623674223101
 30
0.0
 10
119.4580640406131
 20
-84.7780609975716
 30
0.0
 10
119.6727082132296
 20
-85.11458282275305
 30
0.0
 10
119.6677598494236
 20
-84.98990680722481
 30
0.0
 10
119.6688884122166
 20
-84.93127742878357
 30
0.0
 10
119.6683830361134
 20
-84.84411772442111
 30
0.0
 10
119.6685427677732
 20
-84.75039291631217
 30
0.0
 10
119.6685007410937
 20
-84.66436463517053
 30
0.0
 10
119.6685154559992
 20
-84.60301542868595
 30
0.0
 10
119.6684658775603
 20
-84.45320203293097
 30
0.0
 10
119.6713764042428
 20
-84.2146582230398
 30
0.0
 10
119.6514473560782
 20
-83.8496892494539
 30
0.0
 10
119.7005386455867
 20
-83.58655802820675
 30
0.0
 10
119.54329040288
 20
-83.17526529866339
 30
0.0
 10
119.7017065392041
 20
-83.23057152262342
 30
0.0
 10
119.7566632998248
 20
-83.23255748313916
 30
0.0
 10
119.8082840286359
 20
-83.23190656565833
 30
0.0
 10
119.8968151484985
 20
-83.1908590707585
 30
0.0
 10
119.8459850822788
 20
-83.33759108191103
 30
0.0
 10
119.8568342449902
 20
-83.44435462859654
 30
0.0
 10
119.8420989514466
 20
-83.60369729399979
 30
0.0
 10
119.8354928965824
 20
-83.76602373161217
 30
0.0
 10
119.8269913919534
 20
-83.93462912921694
 30
0.0
 10
119.8198179721817
 20
-84.09640620110548
 30
0.0
 10
119.8144015735009
 20
-84.2403310335616
 30
0.0
 10
119.8126666487267
 20
-84.36017941347166
 30
0.0
 10
119.8130393191938
 20
-84.46769333223574
 30
0.0
 10
119.8128608645881
 20
-84.57635410168501
 30
0.0
 10
119.8131963382759
 20
-84.69501864648561
 30
0.0
 10
119.8144993141803
 20
-84.81900271301348
 30
0.0
 10
119.8163839871193
 20
-84.94597140642983
 30
0.0
 10
119.8179956974469
 20
-85.07301573263057
 30
0.0
 10
119.819635565705
 20
-85.19600550321913
 30
0.0
 10
119.821752326537
 20
-85.3115450343033
 30
0.0
 10
119.8218800941982
 20
-85.41364530858252
 30
0.0
 10
119.8261466916173
 20
-85.50445585975933
 30
0.0
 10
119.8163392604908
 20
-85.56241813605301
 30
0.0
 10
119.8373427291308
 20
-85.62938304682064
 30
0.0
 10
119.7980592259516
 20
-85.62164280847401
 30
0.0
 10
119.5850259637366
 20
-85.63700180668924
 30
0.0
 10
119.3891250462805
 20
-85.0805237671961
 30
0.0
 10
119.0866150151163
 20
-84.8189939946558
 30
0.0
 10
118.932288816764
 20
-84.68557396612366
 30
0.0
 11
118.932288816764
 21
-84.68557396612366
 31
0.0
 11
118.485048185813
 21
-84.20697799402113
 31
0.0
 11
118.0379001590262
 21
-83.7310278552512
 31
0.0
 11
118.0344616782113
 21
-83.84369184827858
 31
0.0
 11
118.031056270312
 21
-83.9889789662978
 31
0.0
 11
118.0284589439893
 21
-84.17989788986121
 31
0.0
 11
118.0276078676222
 21
-84.42934264674332
 31
0.0
 11
118.0280191749908
 21
-84.51015631859809
 31
0.0
 11
118.0293372849436
 21
-84.60814806336528
 31
0.0
 11
118.0310144787337
 21
-84.71741877514351
 31
0.0
 11
118.0327319647138
 21
-84.8317297994205
 31
0.0
 11
118.0348960358391
 21
-84.94957631848824
 31
0.0
 11
118.0379001590262
 21
-85.06909632713891
 31
0.0
 11
118.0413312252757
 21
-85.18522084967934
 31
0.0
 11
118.0447881449618
 21
-85.2926868826386
 31
0.0
 11
118.0482037772707
 21
-85.38945272462826
 31
0.0
 11
118.0516849503412
 21
-85.47330028537118
 31
0.0
 11
118.0550958703932
 21
-85.5382257280633
 31
0.0
 11
118.0585729362767
 21
-85.57828695201162
 31
0.0
 11
118.000921634119
 21
-85.57310001624904
 31
0.0
 11
117.9381698837928
 21
-85.57139896590228
 31
0.0
 11
117.8719204236776
 21
-85.57310001624903
 31
0.0
 11
117.8108700259295
 21
-85.57828695201162
 31
0.0
 11
117.8181725257431
 21
-85.529235406885
 31
0.0
 11
117.8263746088673
 21
-85.45098709093234
 31
0.0
 11
117.8345051341967
 21
-85.34903541561059
 31
0.0
 11
117.8418358961016
 21
-85.22912514654337
 31
0.0
 11
117.8491310800041
 21
-85.094495224702
 31
0.0
 11
117.8573396775215
 21
-84.94869327161345
 31
0.0
 11
117.8650456669085
 21
-84.79740231679017
 31
0.0
 11
117.8710715521712
 21
-84.64604521613356
 31
0.0
 11
117.8757998767035
 21
-84.49637483422654
 31
0.0
 11
117.8796881491739
 21
-84.35019695231867
 31
0.0
 11
117.8822479928584
 21
-84.21343603221393
 31
0.0
 11
117.8831277324193
 21
-84.09224584127199
 31
0.0
 11
117.8826878626389
 21
-83.78515719551547
 31
0.0
 11
117.8814079407966
 21
-83.52458229974724
 31
0.0
 11
117.8783611237512
 21
-83.31735512097964
 31
0.0
 11
117.8728001632382
 21
-83.17034049428028
 31
0.0
 11
117.8870680641088
 21
-83.17034049428028
 31
0.0
 11
117.9135655942971
 21
-83.17034049428028
 31
0.0
 11
117.9278334951677
 21
-83.17034049428028
 31
0.0
 11
118.1449696169896
 21
-83.40545255151318
 31
0.0
 11
118.3767696642699
 21
-83.65704153582527
 31
0.0
 11
118.6149768538458
 21
-83.9150587927052
 31
0.0
 11
118.8515027077141
 21
-84.16958354958601
 31
0.0
 11
119.0810651237325
 21
-84.41555675264951
 31
0.0
 11
119.2986749879723
 21
-84.64776500779982
 31
0.0
 11
119.4968677433327
 21
-84.8562875424699
 31
0.0
 11
119.6685095618705
 21
-85.031287368815
 31
0.0
 11
119.6685095618705
 21
-85.00537224127046
 31
0.0
 11
119.6685095618705
 21
-84.93853849128718
 31
0.0
 11
119.6685095618705
 21
-84.84715356784065
 31
0.0
 11
119.6685095618705
 21
-84.74758491990637
 31
0.0
 11
119.6685095618705
 21
-84.65619999645982
 31
0.0
 11
119.6685095618705
 21
-84.58936624647654
 31
0.0
 11
119.6685095618705
 21
-84.56345111893201
 31
0.0
 11
119.6672186157228
 21
-84.20700004263222
 31
0.0
 11
119.6633413675578
 21
-83.86004750799674
 31
0.0
 11
119.6551150309621
 21
-83.52761618863538
 31
0.0
 11
119.6409487986847
 21
-83.2149492442691
 31
0.0
 11
119.7045303769238
 21
-83.22789067655756
 31
0.0
 11
119.7579122679231
 21
-83.23217361926483
 31
0.0
 11
119.8060333604452
 21
-83.22789067655755
 31
0.0
 11
119.8679789317816
 21
-83.2149492442691
 31
0.0
 11
119.8606169007194
 21
-83.3095730636899
 31
0.0
 11
119.8524743488437
 21
-83.44197938310126
 31
0.0
 11
119.8438657883623
 21
-83.59855098028434
 31
0.0
 11
119.8352499742834
 21
-83.7653884107982
 31
0.0
 11
119.8271140369908
 21
-83.9356510930473
 31
0.0
 11
119.8197453913454
 21
-84.10249403571389
 31
0.0
 11
119.8146359451141
 21
-84.25125491241282
 31
0.0
 11
119.8129455998523
 21
-84.36733313286989
 31
0.0
 11
119.8129455998523
 21
-84.46196687416571
 31
0.0
 11
119.8129455998523
 21
-84.57377868837382
 31
0.0
 11
119.8133413724116
 21
-84.6933163359134
 31
0.0
 11
119.8145771970327
 21
-84.8179538272017
 31
0.0
 11
119.8163344712936
 21
-84.94572222126698
 31
0.0
 11
119.8180255997227
 21
-85.07426452158211
 31
0.0
 11
119.8197828739834
 21
-85.19897146599534
 31
0.0
 11
119.8214740024124
 21
-85.3150794520774
 31
0.0
 11
119.8227836898791
 21
-85.41959538087072
 31
0.0
 11
119.8231937940354
 21
-85.50938063258437
 31
0.0
 11
119.8231937940354
 21
-85.57563670895674
 31
0.0
 11
119.8231937940354
 21
-85.62289570200048
 31
0.0
 11
119.7991652182595
 21
-85.62289570200048
 31
0.0
 11
119.7751366424836
 21
-85.62289570200048
 31
0.0
 11
119.3665681720042
 21
-85.15988699551899
 31
0.0
 11
118.932288816764
 21
-84.68557396612366
 31
0.0
  0
SPLINE
  5
B2
102
{ACAD_REACTORS
330
CF
102
}
330
48
100
AcDbEntity
  8
_U_30EC_U_30A4_U_30E4_U_30FC_1
  6
Continuous
 62
     2
100
AcDbSpline
210
0.0
220
0.0
230
1.0
 70
    11
 71
     3
 72
    25
 73
    21
 74
    19
 42
0.000000001
 43
0.0000000001
 44
0.00000001
 40
0.0
 40
0.0
 40
0.0
 40
0.0
 40
0.0911479969065106
 40
0.1858117896205802
 40
0.2804128399735346
 40
0.3715889190714654
 40
0.4679080494219137
 40
0.5642683809229375
 40
0.6605683222645278
 40
0.7569653015810398
 40
0.8561348172522874
 40
1.092615965104323
 40
1.374867658141931
 40
1.611348812011623
 40
1.710518328425287
 40
1.809403163726631
 40
2.045205463294132
 40
2.326646917622181
 40
2.562449217190657
 40
2.661334043833964
 40
2.661334043833964
 40
2.661334043833964
 40
2.661334043833964
 10
114.8938653086818
 20
-84.50840896616798
 30
0.0
 10
114.9242478437541
 20
-84.50857355099537
 30
0.0
 10
114.9861848408731
 20
-84.5089090612417
 30
0.0
 10
115.079630947995
 20
-84.51186379362088
 30
0.0
 10
115.1730047755977
 20
-84.51477681936942
 30
0.0
 10
115.2672713273095
 20
-84.51561233170672
 30
0.0
 10
115.3609917310586
 20
-84.51458790156043
 30
0.0
 10
115.4606992822824
 20
-84.51538457343118
 30
0.0
 10
115.5443902065932
 20
-84.50534024578869
 30
0.0
 10
115.6892948834664
 20
-84.53220817139923
 30
0.0
 10
115.565108496442
 20
-84.35789904534043
 30
0.0
 10
115.52208198059
 20
-84.19803723807996
 30
0.0
 10
115.4063874661828
 20
-83.93936976263879
 30
0.0
 10
115.3272517950876
 20
-83.80224381952226
 30
0.0
 10
115.2686529141435
 20
-83.58518401680011
 30
0.0
 10
115.2119756459057
 20
-83.8018930060066
 30
0.0
 10
115.1307762420096
 20
-83.94128422375852
 30
0.0
 10
115.0318653801108
 20
-84.19048465443899
 30
0.0
 10
114.9508577613877
 20
-84.37529604588018
 30
0.0
 10
114.9068635845457
 20
-84.47804987957971
 30
0.0
 10
114.8938653086818
 20
-84.50840896616798
 30
0.0
 11
114.8938653086818
 21
-84.50840896616798
 31
0.0
 11
114.9850090257439
 21
-84.5092931154733
 31
0.0
 11
115.0796380817201
 21
-84.5118573689449
 31
0.0
 11
115.1742034699325
 21
-84.51445469533313
 31
0.0
 11
115.2653755769815
 21
-84.5153057717218
 31
0.0
 11
115.3616938297325
 21
-84.51489456512468
 31
0.0
 11
115.4580451553995
 21
-84.51357716061118
 31
0.0
 11
115.5543215157905
 21
-84.51144616234777
 31
0.0
 11
115.6506706365962
 21
-84.50840896616798
 31
0.0
 11
115.610958584276
 21
-84.4175379261907
 31
0.0
 11
115.5162606133587
 21
-84.20084544624488
 31
0.0
 11
115.4032340029089
 21
-83.94221248630953
 31
0.0
 11
115.3085360319916
 21
-83.72552000636372
 31
0.0
 11
115.2688239796714
 21
-83.63464896638644
 31
0.0
 11
115.2298282778885
 21
-83.72552000636372
 31
0.0
 11
115.1368385274831
 21
-83.94221248630954
 31
0.0
 11
115.0258507608702
 21
-84.20084544624488
 31
0.0
 11
114.9328610104647
 21
-84.4175379261907
 31
0.0
 11
114.8938653086818
 21
-84.50840896616798
 31
0.0
  0
SPLINE
  5
B3
102
{ACAD_REACTORS
330
CF
102
}
330
48
100
AcDbEntity
  8
_U_30EC_U_30A4_U_30E4_U_30FC_1
  6
Continuous
 62
     2
100
AcDbSpline
210
0.0
220
0.0
230
1.0
 70
    11
 71
     3
 72
    57
 73
    53
 74
    51
 42
0.000000001
 43
0.0000000001
 44
0.00000001
 40
0.0
 40
0.0
 40
0.0
 40
0.0
 40
0.0471632082809087
 40
0.0914861054632151
 40
0.1357762519702102
 40
0.1826527001609687
 40
0.2295203288571595
 40
0.2737751972220476
 40
0.3181310461542779
 40
0.3652607198398522
 40
0.457100728631446
 40
0.5671851029165076
 40
0.6894623283868396
 40
0.8181758272545904
 40
0.9510087229273674
 40
1.085852229674063
 40
1.218126164475316
 40
1.343545131142376
 40
1.454537202956779
 40
1.567187607530703
 40
1.680710966642335
 40
1.794226869736785
 40
1.900009184247485
 40
2.004085860447849
 40
2.108162674451766
 40
2.21400015015531
 40
2.496038577352163
 40
2.762350745479289
 40
2.997275353279403
 40
3.185110082137732
 40
3.24640789006393
 40
3.312607550212704
 40
3.378877742711548
 40
3.44014039965146
 40
4.100501696006532
 40
4.754913085563532
 40
5.41133169342393
 40
6.077890432568728
 40
6.110575292671021
 40
6.143260152775772
 40
6.367989363395164
 40
6.610525374951552
 40
6.863389136467312
 40
7.119380025547636
 40
7.376036605091083
 40
7.631164770966286
 40
7.876722425456415
 40
8.104953735855958
 40
8.312916685924291
 40
8.497730294941277
 40
8.651018984313843
 40
8.764738853624577
 40
8.764738853624577
 40
8.764738853624577
 40
8.764738853624577
 10
116.4177602020132
 20
-85.57828695201162
 30
0.0
 10
116.402156924655
 20
-85.5762920373501
 30
0.0
 10
116.3718900479921
 20
-85.57242233453792
 30
0.0
 10
116.3265946721871
 20
-85.57113449846821
 30
0.0
 10
116.2814505648968
 20
-85.5714675126004
 30
0.0
 10
116.2353969643019
 20
-85.57140776139867
 30
0.0
 10
116.1895448691716
 20
-85.57129621164088
 30
0.0
 10
116.1438664167784
 20
-85.571776013575
 30
0.0
 10
116.1005764061227
 20
-85.56994325195366
 30
0.0
 10
116.0294900471133
 20
-85.59405877999437
 30
0.0
 10
116.031242978106
 20
-85.47270740836836
 30
0.0
 10
115.9841148890189
 20
-85.3872919506286
 30
0.0
 10
115.9446430771381
 20
-85.26968505468955
 30
0.0
 10
115.8961588052263
 20
-85.15222682273654
 30
0.0
 10
115.8455969922142
 20
-85.03049499052574
 30
0.0
 10
115.7973587130096
 20
-84.90379466951626
 30
0.0
 10
115.7390185467214
 20
-84.79521747029138
 30
0.0
 10
115.723584518688
 20
-84.63834777679682
 30
0.0
 10
115.5821538850255
 20
-84.67081988265764
 30
0.0
 10
115.4763349934523
 20
-84.65942546131907
 30
0.0
 10
115.3613522244842
 20
-84.66062843299477
 30
0.0
 10
115.250809477176
 20
-84.65948489466678
 30
0.0
 10
115.1431536042402
 20
-84.66037084776568
 30
0.0
 10
115.0376275048861
 20
-84.66038832423565
 30
0.0
 10
114.9364145201632
 20
-84.66741402341677
 30
0.0
 10
114.7521757347372
 20
-84.6431957495422
 30
0.0
 10
114.741234620503
 20
-84.94713743692206
 30
0.0
 10
114.6342644154368
 20
-85.17102257560691
 30
0.0
 10
114.5353101123965
 20
-85.35560120521592
 30
0.0
 10
114.5480043043626
 20
-85.59925230009884
 30
0.0
 10
114.4305044236016
 20
-85.56947388060892
 30
0.0
 10
114.3677008387929
 20
-85.57197345304488
 30
0.0
 10
114.3040824613019
 20
-85.57111359711283
 30
0.0
 10
114.0200966713693
 20
-85.61357394872154
 30
0.0
 10
114.6506591019001
 20
-84.89373482369305
 30
0.0
 10
114.734259780869
 20
-84.38178895378357
 30
0.0
 10
115.1184205308957
 20
-83.86101691264042
 30
0.0
 10
115.1032160808186
 20
-83.1593580856088
 30
0.0
 10
115.3494218242316
 20
-83.17109801732833
 30
0.0
 10
115.4511298677181
 20
-83.16230430361321
 30
0.0
 10
115.4504704555437
 20
-83.41395784083736
 30
0.0
 10
115.5683269675447
 20
-83.59637414080134
 30
0.0
 10
115.6570467780104
 20
-83.83891694151228
 30
0.0
 10
115.7577245004879
 20
-84.07115404283955
 30
0.0
 10
115.8566095231861
 20
-84.30780790247181
 30
0.0
 10
115.9554629510288
 20
-84.53993695643996
 30
0.0
 10
116.0511118910545
 20
-84.763332120253
 30
0.0
 10
116.1414857092891
 20
-84.97182885764775
 30
0.0
 10
116.2244897087807
 20
-85.16146986284764
 30
0.0
 10
116.2981041102418
 20
-85.32792328745994
 30
0.0
 10
116.3597768415165
 20
-85.46537735187988
 30
0.0
 10
116.4004411405223
 20
-85.54456195384056
 30
0.0
 10
116.4177602020132
 20
-85.57828695201162
 30
0.0
 11
116.4177602020132
 21
-85.57828695201162
 31
0.0
 11
116.3708830837066
 21
-85.57310001624904
 31
0.0
 11
116.3265928415744
 21
-85.57139896590228
 31
0.0
 11
116.2823026951348
 21
-85.57139896590228
 31
0.0
 11
116.2354262466779
 21
-85.57139896590228
 31
0.0
 11
116.1885586176653
 21
-85.57139896590228
 31
0.0
 11
116.1443037490027
 21
-85.57139896590228
 31
0.0
 11
116.0999805296473
 21
-85.57310001624903
 31
0.0
 11
116.0531371541062
 21
-85.57828695201162
 31
0.0
 11
116.0247484655944
 21
-85.49094468640845
 31
0.0
 11
115.9877674335517
 21
-85.3872577853927
 31
0.0
 11
115.944333875632
 21
-85.27295447812962
 31
0.0
 11
115.8966008386555
 21
-85.15341903545121
 31
0.0
 11
115.8463112652856
 21
-85.03047377506525
 31
0.0
 11
115.7951419523551
 21
-84.90571611884643
 31
0.0
 11
115.7452484320945
 21
-84.78321293311318
 31
0.0
 11
115.698807163146
 21
-84.66670917446173
 31
0.0
 11
115.5878564427208
 21
-84.66367969529583
 31
0.0
 11
115.4752261744709
 21
-84.66154979946299
 31
0.0
 11
115.3617104589069
 21
-84.66023239494949
 31
0.0
 11
115.2481952996419
 21
-84.65982118835237
 31
0.0
 11
115.1424137832436
 21
-84.6602323949495
 31
0.0
 11
115.0383454438844
 21
-84.66154979946299
 31
0.0
 11
114.9342904243664
 21
-84.66367969529584
 31
0.0
 11
114.8284963135215
 21
-84.66670917446173
 31
0.0
 11
114.7235867269757
 21
-84.9285099730074
 31
0.0
 11
114.628982120995
 21
-85.17745202155629
 31
0.0
 11
114.5507183729917
 21
-85.39895677844532
 31
0.0
 11
114.4948383744174
 21
-85.57828695201162
 31
0.0
 11
114.4337604159061
 21
-85.57310001624904
 31
0.0
 11
114.3675826137749
 21
-85.57139896590228
 31
0.0
 11
114.3013342560902
 21
-85.57310001624903
 31
0.0
 11
114.2402915753557
 21
-85.57828695201162
 31
0.0
 11
114.515463747155
 21
-84.97798926118946
 31
0.0
 11
114.7837898253789
 21
-84.38111792453314
 31
0.0
 11
115.0495229870023
 21
-83.78089189169708
 31
0.0
 11
115.3169693256652
 21
-83.17034049428028
 31
0.0
 11
115.3496541859425
 21
-83.17034049428028
 31
0.0
 11
115.3823390462198
 21
-83.17034049428028
 31
0.0
 11
115.4683253200677
 21
-83.37796895777005
 31
0.0
 11
115.5612238333228
 21
-83.60200820250573
 31
0.0
 11
115.6583667041082
 21
-83.83546771633621
 31
0.0
 11
115.7572888977651
 21
-84.07157306349944
 31
0.0
 11
115.8570293769546
 21
-84.30805654434306
 31
0.0
 11
115.9568023648972
 21
-84.54286653560379
 31
0.0
 11
116.0535560777068
 21
-84.76855942617239
 31
0.0
 11
116.1443037490027
 21
-84.9779738271617
 31
0.0
 11
116.2277103354165
 21
-85.1684782368363
 31
0.0
 11
116.3025245782996
 21
-85.33747202151622
 31
0.0
 11
116.3665681706223
 21
-85.4767409711342
 31
0.0
 11
116.4177602020132
 21
-85.57828695201162
 31
0.0
  0
SPLINE
  5
B4
102
{ACAD_REACTORS
330
D0
102
}
330
48
100
AcDbEntity
  8
_U_30EC_U_30A4_U_30E4_U_30FC_1
  6
Continuous
 62
     2
100
AcDbSpline
210
0.0
220
0.0
230
1.0
 70
    11
 71
     3
 72
    99
 73
    95
 74
    93
 42
0.000000001
 43
0.0000000001
 44
0.00000001
 40
0.0
 40
0.0
 40
0.0
 40
0.0
 40
0.0796417172272583
 40
0.1621768542356555
 40
0.248648916095808
 40
0.3404969668525348
 40
0.4381912511165065
 40
0.5434463660245512
 40
0.6518115192847136
 40
0.7530190937886542
 40
0.849219691972467
 40
0.94192903129977
 40
1.034249663569978
 40
1.129078600620146
 40
1.226697027573198
 40
1.327220425421661
 40
1.470572134937985
 40
1.595489863371208
 40
1.71993412534833
 40
1.850576620127399
 40
1.989059629987275
 40
2.134139054226909
 40
2.280698007207194
 40
2.424529739039482
 40
2.565929576985842
 40
2.708239260773472
 40
2.861717887443621
 40
3.045168540347336
 40
3.18379830113858
 40
3.314813961455435
 40
3.442083470447293
 40
3.569912708372932
 40
3.702177512509368
 40
3.842307559659487
 40
3.992872223245903
 40
4.156750662218277
 40
4.310981861107583
 40
4.445859909322642
 40
4.572393936131584
 40
4.70165671978194
 40
4.768279086008424
 40
4.83596069789836
 40
4.912788918729283
 40
5.006285208481486
 40
5.02690947875159
 40
5.047533749021155
 40
5.101808031471213
 40
5.162325165538527
 40
5.226919745995841
 40
5.294231806596714
 40
5.364544852554825
 40
5.43831905546795
 40
5.517877651324241
 40
5.607647714861554
 40
5.700449642544387
 40
5.788251142364145
 40
5.872714706039783
 40
5.955167292575285
 40
6.037192395190404
 40
6.120669181469122
 40
6.206848616686327
 40
6.296680855416749
 40
6.442558392872563
 40
6.568190371608225
 40
6.692904567360286
 40
6.824220446557078
 40
6.963121850329359
 40
7.1078437388512
 40
7.253431663907254
 40
7.395187468036648
 40
7.533140753237712
 40
7.670550457175181
 40
7.816236511769213
 40
7.987691657359176
 40
8.142277421969212
 40
8.293662615414991
 40
8.442962460879249
 40
8.59159831618531
 40
8.743678992361787
 40
8.903725323699163
 40
9.076307008890431
 40
9.265578604680556
 40
9.459203795360688
 40
9.617619810273395
 40
9.75360967136185
 40
9.874873300004056
 40
9.954520184977747
 40
10.02416413719244
 40
10.09769764405443
 40
10.1890995592497
 40
10.20974586420135
 40
10.23039218263386
 40
10.30057101881269
 40
10.37632012987547
 40
10.37632012987547
 40
10.37632012987547
 40
10.37632012987547
 10
111.772090735547
 20
-85.25659771598096
 30
0.0
 10
111.7887170370838
 20
-85.27734825968778
 30
0.0
 10
111.8225736726197
 20
-85.31960323102187
 30
0.0
 10
111.8854775060656
 20
-85.37425623422017
 30
0.0
 10
111.9587453460013
 20
-85.42156409693038
 30
0.0
 10
112.0430921758255
 20
-85.45928203376153
 30
0.0
 10
112.1387193135079
 20
-85.4841481508214
 30
0.0
 10
112.2426806294965
 20
-85.49145875468153
 30
0.0
 10
112.3478972740024
 20
-85.48313112020035
 30
0.0
 10
112.4461578890952
 20
-85.45306255162559
 30
0.0
 10
112.5313938947167
 20
-85.40606611842216
 30
0.0
 10
112.6034172725722
 20
-85.3450244356323
 30
0.0
 10
112.6605870228715
 20
-85.27042465235509
 30
0.0
 10
112.7022821267058
 20
-85.18452970153912
 30
0.0
 10
112.7281905365912
 20
-85.08969584381882
 30
0.0
 10
112.7372989852273
 20
-84.97600455775725
 30
0.0
 10
112.7241817316106
 20
-84.85122847043309
 30
0.0
 10
112.6580282854033
 20
-84.73440715642202
 30
0.0
 10
112.5624323439188
 20
-84.64942895236706
 30
0.0
 10
112.4504633541988
 20
-84.58038750354933
 30
0.0
 10
112.3248612102888
 20
-84.52251292768197
 30
0.0
 10
112.1911644140475
 20
-84.4708171152975
 30
0.0
 10
112.0568075338449
 20
-84.41556342416908
 30
0.0
 10
111.9306936506496
 20
-84.34515664172443
 30
0.0
 10
111.8181532507154
 20
-84.25669894082844
 30
0.0
 10
111.7224915584078
 20
-84.14474366945609
 30
0.0
 10
111.6589109671444
 20
-83.99505524712711
 30
0.0
 10
111.6455659024634
 20
-83.83522640428947
 30
0.0
 10
111.6575463507067
 20
-83.68407029507246
 30
0.0
 10
111.696725144846
 20
-83.5564619022255
 30
0.0
 10
111.7609940270529
 20
-83.44374560783243
 30
0.0
 10
111.8493157519359
 20
-83.34806825545402
 30
0.0
 10
111.9593043727246
 20
-83.27101219828339
 30
0.0
 10
112.0887236920884
 20
-83.21304037877809
 30
0.0
 10
112.2366791487412
 20
-83.1771625722527
 30
0.0
 10
112.3937021975106
 20
-83.1670871576353
 30
0.0
 10
112.5429892986049
 20
-83.17591797051497
 30
0.0
 10
112.685120613379
 20
-83.20380535473737
 30
0.0
 10
112.7850875129245
 20
-83.26042120112952
 30
0.0
 10
112.9380027255803
 20
-83.30780832708584
 30
0.0
 10
112.8710084236787
 20
-83.39257881812905
 30
0.0
 10
112.8551431639888
 20
-83.46016532940608
 30
0.0
 10
112.8233703050916
 20
-83.52529342020895
 30
0.0
 10
112.840515472919
 20
-83.62731981557147
 30
0.0
 10
112.7921379727851
 20
-83.61962223132184
 30
0.0
 10
112.7570741960384
 20
-83.62648663089286
 30
0.0
 10
112.7551650505337
 20
-83.5619160365589
 30
0.0
 10
112.7240645451608
 20
-83.51629795192696
 30
0.0
 10
112.6919504148075
 20
-83.45894398185631
 30
0.0
 10
112.6462990994787
 20
-83.40914972121536
 30
0.0
 10
112.5913460738006
 20
-83.3646062109509
 30
0.0
 10
112.5265793692626
 20
-83.32691445977542
 30
0.0
 10
112.4487329830215
 20
-83.30172059022736
 30
0.0
 10
112.3610113072971
 20
-83.29524203815976
 30
0.0
 10
112.2707855797426
 20
-83.30219725528485
 30
0.0
 10
112.1849547213683
 20
-83.32546244353168
 30
0.0
 10
112.1083296158215
 20
-83.36323790706541
 30
0.0
 10
112.042021815582
 20
-83.41403793724517
 30
0.0
 10
111.9877513056583
 20
-83.4772429140688
 30
0.0
 10
111.9479877865077
 20
-83.55178979103718
 30
0.0
 10
111.9231728030208
 20
-83.63538120816331
 30
0.0
 10
111.9147076782489
 20
-83.74262486431803
 30
0.0
 10
111.9274650506723
 20
-83.8648997754653
 30
0.0
 10
111.9936500928892
 20
-83.98305710522878
 30
0.0
 10
112.0895929919451
 20
-84.06849109104564
 30
0.0
 10
112.2012867482802
 20
-84.13872072507367
 30
0.0
 10
112.3265816188322
 20
-84.19796272508788
 30
0.0
 10
112.4604776461067
 20
-84.24838726727955
 30
0.0
 10
112.5944882852769
 20
-84.30132917829704
 30
0.0
 10
112.7205837836534
 20
-84.3670526418892
 30
0.0
 10
112.8331169158036
 20
-84.44975082276764
 30
0.0
 10
112.9286322803851
 20
-84.55459428504018
 30
0.0
 10
112.9927659006582
 20
-84.69518317562515
 30
0.0
 10
113.0066056244897
 20
-84.85390025362497
 30
0.0
 10
112.9928907231849
 20
-85.01302279596214
 30
0.0
 10
112.9499691673604
 20
-85.1597160599488
 30
0.0
 10
112.8800858848685
 20
-85.29335638226948
 30
0.0
 10
112.7829544733448
 20
-85.40923047114799
 30
0.0
 10
112.6602758543276
 20
-85.50365453044003
 30
0.0
 10
112.5129360932787
 20
-85.57276164162104
 30
0.0
 10
112.3432085016744
 20
-85.61502223955242
 30
0.0
 10
112.1572357499216
 20
-85.6267369858368
 30
0.0
 10
111.9783908445802
 20
-85.61645948130655
 30
0.0
 10
111.8136686273363
 20
-85.5748886104493
 30
0.0
 10
111.7089363360676
 20
-85.50657791930152
 30
0.0
 10
111.5605913309984
 20
-85.45780215781983
 30
0.0
 10
111.6235330714348
 20
-85.36478843523248
 30
0.0
 10
111.6327226949679
 20
-85.29158898565808
 30
0.0
 10
111.655866382085
 20
-85.22519140312744
 30
0.0
 10
111.6289540854936
 20
-85.12480625286506
 30
0.0
 10
111.6776291475958
 20
-85.13221401296711
 30
0.0
 10
111.7171483100316
 20
-85.12561371193193
 30
0.0
 10
111.7251157464321
 20
-85.2037673159516
 30
0.0
 10
111.7560389487542
 20
-85.23854507438233
 30
0.0
 10
111.772090735547
 20
-85.25659771598096
 30
0.0
 11
111.772090735547
 21
-85.25659771598096
 31
0.0
 11
111.8236990595483
 21
-85.31725564999353
 31
0.0
 11
111.8856058020955
 21
-85.37184139650769
 31
0.0
 11
111.9582716529422
 21
-85.41871453885706
 31
0.0
 11
112.0421421175463
 21
-85.45615528537553
 31
0.0
 11
112.1367163252029
 21
-85.48064798502212
 31
0.0
 11
112.2416555846785
 21
-85.48879604925617
 31
0.0
 11
112.3495692017171
 21
-85.47891386175866
 31
0.0
 11
112.4463372461235
 21
-85.44926729926607
 31
0.0
 11
112.5305728602937
 21
-85.4028031586527
 31
0.0
 11
112.6011096727305
 21
-85.34264021595939
 31
0.0
 11
112.6574394629598
 21
-85.2694961534777
 31
0.0
 11
112.6991642535622
 21
-85.18434000766567
 31
0.0
 11
112.7249633327652
 21
-85.09019243824477
 31
0.0
 11
112.7335777249066
 21
-84.9900388271587
 31
0.0
 11
112.7133470222976
 21
-84.84812183934693
 31
0.0
 11
112.652747518635
 21
-84.73888750777702
 31
0.0
 11
112.5619923805905
 21
-84.65374128383995
 31
0.0
 11
112.4515054404359
 21
-84.58402688281573
 31
0.0
 11
112.3263476050873
 21
-84.52475580644168
 31
0.0
 11
112.1917904470617
 21
-84.4705118133997
 31
0.0
 11
112.0571836796626
 21
-84.41254160508086
 31
0.0
 11
111.9320754536877
 21
-84.34158035509857
 31
0.0
 11
111.8215228617899
 21
-84.25342118845396
 31
0.0
 11
111.7308333754885
 21
-84.14375139681472
 31
0.0
 11
111.6702007989103
 21
-84.00275714337775
 31
0.0
 11
111.6500031692172
 21
-83.82042174411775
 31
0.0
 11
111.6628982990966
 21
-83.68239302887449
 31
0.0
 11
111.701596917901
 21
-83.557223063628
 31
0.0
 11
111.7648094251125
 21
-83.44676172685004
 31
0.0
 11
111.8512452474164
 21
-83.35258549423469
 31
0.0
 11
111.9591445328582
 21
-83.27608894043439
 31
0.0
 11
112.0868478802947
 21
-83.21839764704602
 31
0.0
 11
112.2330345779542
 21
-83.18235368004116
 31
0.0
 11
112.3964721085069
 21
-83.17034049428028
 31
0.0
 11
112.5503870950909
 21
-83.18021165747226
 31
0.0
 11
112.6819839762227
 21
-83.20978104982592
 31
0.0
 11
112.7980588864559
 21
-83.26015440918837
 31
0.0
 11
112.9055745260741
 21
-83.33191271646213
 31
0.0
 11
112.8771946570063
 21
-83.39218810707204
 31
0.0
 11
112.8539807773902
 21
-83.45576417476443
 31
0.0
 11
112.833333356042
 21
-83.52976592821821
 31
0.0
 11
112.8126793201106
 21
-83.62095236916763
 31
0.0
 11
112.7920550498034
 21
-83.62095236916763
 31
0.0
 11
112.7714307794962
 21
-83.62095236916763
 31
0.0
 11
112.751165901541
 21
-83.57060326327743
 31
0.0
 11
112.724961127904
 21
-83.5160538969716
 31
0.0
 11
112.690542144407
 21
-83.46139318517974
 31
0.0
 11
112.6458507132556
 21
-83.41105841088678
 31
0.0
 11
112.591228587913
 21
-83.36678259492561
 31
0.0
 11
112.5271674523945
 21
-83.33019292479588
 31
0.0
 11
112.4514635480759
 21
-83.30572888834364
 31
0.0
 11
112.3620674566068
 21
-83.29754334147067
 31
0.0
 11
112.2695889693827
 21
-83.30528460882988
 31
0.0
 11
112.1849024611264
 21
-83.32846431368523
 31
0.0
 11
112.1091977008459
 21
-83.3659193918008
 31
0.0
 11
112.0438707286135
 21
-83.41622660532987
 31
0.0
 11
111.9905440407283
 21
-83.4785514143421
 31
0.0
 11
111.950976175352
 21
-83.55205486918483
 31
0.0
 11
111.9264476274331
 21
-83.63466991256698
 31
0.0
 11
111.9182906623728
 21
-83.72413104969738
 31
0.0
 11
111.9385048285237
 21
-83.86860126667516
 31
0.0
 11
111.9991208686439
 21
-83.97864257741153
 31
0.0
 11
112.0898431840377
 21
-84.06421764683458
 31
0.0
 11
112.2003629468432
 21
-84.13513479959464
 31
0.0
 11
112.3255042457339
 21
-84.1954112926351
 31
0.0
 11
112.4600779402173
 21
-84.24864986901068
 31
0.0
 11
112.5946681711587
 21
-84.30415945233015
 31
0.0
 11
112.7197929335916
 21
-84.3707815356468
 31
0.0
 11
112.830296159939
 21
-84.4533657109734
 31
0.0
 11
112.9210350117907
 21
-84.55655431337817
 31
0.0
 11
112.9816510519108
 21
-84.68903118834504
 31
0.0
 11
113.0018652180617
 21
-84.85929056330251
 31
0.0
 11
112.9876792267617
 21
-85.01322404416678
 31
0.0
 11
112.9451039528812
 21
-85.15849903544992
 31
0.0
 11
112.8754705403884
 21
-85.29056580625021
 31
0.0
 11
112.7799944598332
 21
-85.40448216038843
 31
0.0
 11
112.6596013292243
 21
-85.49740162217073
 31
0.0
 11
112.5151112721465
 21
-85.56623077145909
 31
0.0
 11
112.3478472052333
 21
-85.60874159610123
 31
0.0
 11
112.1591055867845
 21
-85.62289570200048
 31
0.0
 11
111.9659984246007
 21
-85.60874159610123
 31
0.0
 11
111.8133928420531
 21
-85.56623077145909
 31
0.0
 11
111.6916850461822
 21
-85.505564018002
 31
0.0
 11
111.5915214345982
 21
-85.43721111871352
 31
0.0
 11
111.6177273106658
 21
-85.36199889651013
 31
0.0
 11
111.6345074057237
 21
-85.29440667430477
 31
0.0
 11
111.6461148967471
 21
-85.22179508578127
 31
0.0
 11
111.6568558773758
 21
-85.1310264660123
 31
0.0
 11
111.6775021962935
 21
-85.1310264660123
 31
0.0
 11
111.6981485152112
 21
-85.1310264660123
 31
0.0
 11
111.7303868911249
 21
-85.19336229933006
 31
0.0
 11
111.772090735547
 21
-85.25659771598096
 31
0.0
  0
LWPOLYLINE
  5
B5
102
{ACAD_REACTORS
330
C2
102
}
330
48
100
AcDbEntity
  8
_U_30EC_U_30A4_U_30E4_U_30FC_1
  6
Continuous
 62
     2
100
AcDbPolyline
 90
        5
 70
     1
 43
0.0
 10
134.0833090552291
 20
-83.99733098018464
 10
134.0833090552291
 20
-84.16580000792032
 10
132.785792421665
 20
-84.16580000792032
 10
132.785792421665
 20
-83.99733098018464
 10
134.0833090552291
 20
-83.99733098018464
  0
MTEXT
  5
B7
330
48
100
AcDbEntity
  8
1
 62
     2
100
AcDbMText
 10
-25.87450474803808
 20
182.6054456518594
 30
0.0
 40
5.0
 41
0.0
 71
     5
 72
     1
  1
図番
  7
CONVERTER_11
 73
     1
 44
0.45454545454545
  0
MTEXT
  5
B8
330
48
100
AcDbEntity
  8
1
 62
     2
100
AcDbMText
 10
-29.37450474803808
 20
-65.39455434814089
 30
0.0
 40
3.5
 41
0.0
 71
     5
 72
     1
  1
備考
  7
CONVERTER_11
 73
     1
 44
0.45454545454545
  0
MTEXT
  5
B9
330
48
100
AcDbEntity
  8
1
 62
     2
100
AcDbMText
 10
-29.37450474803808
 20
-76.6445543481409
 30
0.0
 40
3.5
 41
0.0
 71
     5
 72
     1
  1
品名
  7
CONVERTER_11
 73
     1
 44
0.72727272727273
  0
MTEXT
  5
BA
330
48
100
AcDbEntity
  8
1
 62
     2
100
AcDbMText
 10
-29.37450474803808
 20
-85.1445543481409
 30
0.0
 40
3.5
 41
0.0
 71
     5
 72
     1
  1
品番
  7
CONVERTER_11
 73
     1
 44
0.72727272727273
  0
MTEXT
  5
BB
330
48
100
AcDbEntity
  8
1
 62
     2
100
AcDbMText
 10
43.12549525196195
 20
-74.39455434814089
 30
0.0
 40
3.0
 41
0.0
 71
     5
 72
     1
  1
承認
  7
CONVERTER_11
 73
     1
 44
0.59090909090909
  0
MTEXT
  5
BC
330
48
100
AcDbEntity
  8
1
 62
     2
100
AcDbMText
 10
116.625495251962
 20
-75.89455434814089
 30
0.0
 40
3.5
 41
0.0
 71
     5
 72
     1
  1
第三角法
  7
CONVERTER_11
 73
     1
 44
0.54545454545455
  0
MTEXT
  5
BD
330
48
100
AcDbEntity
  8
1
 62
     2
100
AcDbMText
 10
60.12549525196195
 20
-74.39455434814089
 30
0.0
 40
3.0
 41
0.0
 71
     5
 72
     1
  1
検図
  7
CONVERTER_11
 73
     1
 44
0.59090909090909
  0
MTEXT
  5
BE
330
48
100
AcDbEntity
  8
1
 62
     2
100
AcDbMText
 10
94.12549525196195
 20
-74.39455434814089
 30
0.0
 40
3.0
 41
0.0
 71
     5
 72
     1
  1
設計
  7
CONVERTER_11
 73
     1
 44
0.59090909090909
  0
MTEXT
  5
BF
330
48
100
AcDbEntity
  8
1
 62
     2
100
AcDbMText
 10
77.12549525196195
 20
-74.39455434814089
 30
0.0
 40
3.0
 41
0.0
 71
     5
 72
     1
  1
製図
  7
CONVERTER_11
 73
     1
 44
0.59090909090909
  0
MTEXT
  5
C0
330
48
100
AcDbEntity
  8
1
 62
     2
100
AcDbMText
 10
31.12549525196195
 20
-75.39455434814089
 30
0.0
 40
3.5
 41
0.0
 71
     5
 72
     1
  1
尺度
  7
CONVERTER_11
 73
     1
 44
0.54545454545455
  0
MTEXT
  5
C1
330
48
100
AcDbEntity
  8
1
 62
   250
100
AcDbMText
 10
-33.37450474803808
 20
-94.3945543481409
 30
0.0
 40
3.5
 41
0.0
 71
     4
 72
     1
  1
備考欄の文字列 原点位置=4
  7
CONVERTER_11
 73
     1
 44
0.54545454545455
  0
HATCH
  5
C2
330
48
100
AcDbEntity
  8
1
  6
Continuous
 62
     2
100
AcDbHatch
 10
0.0
 20
0.0
 30
0.0
210
0.0
220
0.0
230
1.0
  2
CUSTOM0
 70
     0
 71
     1
 91
        1
 92
        1
 93
        4
 72
     1
 10
134.0833090552291
 20
-83.99733098018464
 11
134.0833090552291
 21
-84.16580000792032
 72
     1
 10
134.0833090552291
 20
-84.16580000792032
 11
132.785792421665
 21
-84.16580000792032
 72
     1
 10
132.785792421665
 20
-84.16580000792032
 11
132.785792421665
 21
-83.99733098018464
 72
     1
 10
132.785792421665
 20
-83.99733098018464
 11
134.0833090552291
 21
-83.99733098018464
 97
        1
330
B5
 75
     1
 76
     2
 52
45.0
 41
0.1
 77
     0
 78
     1
 53
45.0
 43
0.0
 44
0.0
 45
-0.282842712474619
 46
0.0
 79
     0
 98
        1
 10
0.0
 20
0.0
  0
HATCH
  5
C3
330
48
100
AcDbEntity
  8
1
  6
Continuous
 62
     2
100
AcDbHatch
 10
0.0
 20
0.0
 30
0.0
210
0.0
220
0.0
230
1.0
  2
CUSTOM1
 70
     0
 71
     1
 91
        1
 92
        1
 93
        3
 72
     4
 94
        3
 73
     0
 74
     0
 95
       24
 96
       20
 40
0.0
 40
0.0
 40
0.0
 40
0.0
 40
0.2211075008753675
 40
0.4273218586245341
 40
0.5080174679239021
 40
0.5914835907870525
 40
0.8143265690192959
 40
1.054651302686615
 40
1.295452694023207
 40
1.518109231328867
 40
1.54086432190547
 40
1.595126460622742
 40
1.659890947896126
 40
1.714153085187498
 40
1.736908174961802
 40
1.764951100735543
 40
1.801562291221145
 40
1.953914424543819
 40
2.12610416737989
 40
2.12610416737989
 40
2.12610416737989
 40
2.12610416737989
 10
127.5630322076508
 20
-83.80466139701073
 10
127.5367531601431
 20
-83.86357806579716
 10
127.4859651414045
 20
-83.97744295134834
 10
127.4386737358731
 20
-84.25013476580978
 10
127.3298435322237
 20
-84.15009952238631
 10
127.1769752799256
 20
-84.12336841446763
 10
127.3941107700818
 20
-83.90937299796457
 10
127.4093436193999
 20
-83.69123317031602
 10
127.516184201162
 20
-83.51003855747668
 10
127.4560333466696
 20
-83.22542208502682
 10
127.5589269915021
 20
-83.2534134559164
 10
127.6034885987769
 20
-83.26212183211788
 10
127.6635794915016
 20
-83.27315780630735
 10
127.7011572107058
 20
-83.28687911758524
 10
127.7507419448226
 20
-83.2869935865387
 10
127.7185111438944
 20
-83.32148842415465
 10
127.64267547415
 20
-83.31051330276125
 10
127.6684399679313
 20
-83.49596465231642
 10
127.6310849283469
 20
-83.587531212645
 10
127.6112657481228
 20
-83.63611299416384
 72
     4
 94
        3
 73
     0
 74
     0
 95
       70
 96
       66
 40
0.0
 40
0.0
 40
0.0
 40
0.0
 40
0.024173107302133
 40
0.0846058988987013
 40
0.1631685280353284
 40
0.2417311571789613
 40
0.3021639488292751
 40
0.3263370654895825
 40
0.3533118254249254
 40
0.422878343892252
 40
0.5179999095313846
 40
0.6216398239466386
 40
0.7167613891499954
 40
0.786327906965029
 40
0.8133026791762191
 40
0.8372943998771752
 40
0.8945054261373084
 40
0.9627895541962854
 40
1.020000580349097
 40
1.043992300975193
 40
1.071934345522924
 40
1.113121768772936
 40
1.14522519933224
 40
1.225483775412792
 40
1.329819923771504
 40
1.434156071994417
 40
1.514414647795812
 40
1.546518078208431
 40
1.578974764260204
 40
1.662678849314171
 40
1.77713137366842
 40
1.90183337747481
 40
2.0162859005006
 40
2.099989982527967
 40
2.132446666570326
 40
2.158782354486059
 40
2.216720867907833
 40
2.274659381334255
 40
2.300995069256198
 40
2.33345175406617
 40
2.41715583654385
 40
2.53160835898529
 40
2.656310362283785
 40
2.770762886388917
 40
2.854466971340083
 40
2.886923657363889
 40
2.91359797683331
 40
2.982389642875114
 40
3.076451716946986
 40
3.178937260458619
 40
3.272999334740001
 40
3.341791001059244
 40
3.368465320663555
 40
3.396976080738776
 40
3.472140811845984
 40
3.578408190308702
 40
3.700226892456167
 40
3.822045594634355
 40
3.928312973256462
 40
4.003477705314888
 40
4.031988456866925
 40
4.058324144797735
 40
4.116262658236876
 40
4.17420117140068
 40
4.200536849608609
 40
4.200536849608609
 40
4.200536849608609
 40
4.200536849608609
 10
127.6112657481228
 20
-83.63611299416384
 10
127.6193212064298
 20
-83.63611075002403
 10
127.6475153182859
 20
-83.63610288781284
 10
127.7020487323292
 20
-83.63624679985722
 10
127.7737844328222
 20
-83.63546314314185
 10
127.8491192656682
 20
-83.63827864350283
 10
127.8968004886057
 20
-83.63157031413125
 10
127.9450023765235
 20
-83.64257871121657
 10
127.9317524319492
 20
-83.58909031817055
 10
127.9406046484158
 20
-83.53405851270998
 10
127.9363650555904
 20
-83.4403552608798
 10
127.9388436000899
 20
-83.34495952595555
 10
127.9345891225679
 20
-83.25098612830702
 10
127.9434771185465
 20
-83.19660372376077
 10
127.9301929929564
 20
-83.14221437122629
 10
127.9769071796727
 20
-83.15613218478734
 10
128.0198207065356
 20
-83.15351557440047
 10
128.0860395976304
 20
-83.15807012363334
 10
128.1268294791417
 20
-83.1667727267993
 10
128.1780098210437
 20
-83.15923634923894
 10
128.1508673006819
 20
-83.20105464590803
 10
128.1058048575326
 20
-83.19170442741492
 10
128.1197017564669
 20
-83.2561422744225
 10
128.1113366951273
 20
-83.32077215186689
 10
128.1158584698017
 20
-83.41926293620202
 10
128.1109693830786
 20
-83.51859501971518
 10
128.12052115117
 20
-83.5816231926112
 10
128.1054713974819
 20
-83.64491423314301
 10
128.1704111976827
 20
-83.62940361869818
 10
128.2371198919116
 20
-83.63956047116274
 10
128.3496387990446
 20
-83.63466634714723
 10
128.4645187968572
 20
-83.63764230081301
 10
128.5774824519366
 20
-83.632337706291
 10
128.6431220117296
 20
-83.64348128341994
 10
128.7071229210672
 20
-83.62710902494231
 10
128.6958095408808
 20
-83.67693744908814
 10
128.7030292391129
 20
-83.72038719601967
 10
128.6958095130888
 20
-83.76383689226645
 10
128.7071229695613
 20
-83.81366539617211
 10
128.643121611859
 20
-83.79729268722727
 10
128.5774873760078
 20
-83.808441631525
 10
128.4644926836949
 20
-83.80310577607233
 10
128.3497409068262
 20
-83.80621089150273
 10
128.236813620648
 20
-83.80090540131494
 10
128.1710173423203
 20
-83.81198134794496
 10
128.1071050494977
 20
-83.7956783696647
 10
128.1190967684745
 20
-83.85031910418348
 10
128.1117057132624
 20
-83.90601139766245
 10
128.1147637361602
 20
-83.99805745673518
 10
128.1148375305302
 20
-84.0927632494099
 10
128.1115266097979
 20
-84.18502651911824
 10
128.1194458509522
 20
-84.2401966607795
 10
128.1070029131236
 20
-84.29397265713952
 10
128.164406907125
 20
-84.28001665951311
 10
128.2249660660002
 20
-84.28943976929861
 10
128.33036333747
 20
-84.28512548885384
 10
128.4459246590241
 20
-84.28619930202058
 10
128.5614641397416
 20
-84.28729468913096
 10
128.666913365046
 20
-84.2829290904346
 10
128.7273632991423
 20
-84.29246008783416
 10
128.7847790258729
 20
-84.27838145207711
 10
128.7732726396328
 20
-84.32748281548409
 10
128.7792519301369
 20
-84.36890776795441
 10
128.7775263570421
 20
-84.41803756847393
 10
128.777645264259
 20
-84.44601006366481
 10
128.7776824211452
 20
-84.45475146618139
 72
     4
 94
        3
 73
     0
 74
     0
 95
       62
 96
       58
 40
0.0
 40
0.0
 40
0.0
 40
0.0
 40
0.0598250028308485
 40
0.2024846486897047
 40
0.3727558389220178
 40
0.5154154847934933
 40
0.5752404975784202
 40
0.9332326775485807
 40
1.290451762839338
 40
1.602077253145677
 40
1.699931634111909
 40
1.799359756424828
 40
2.270120149656891
 40
2.80466192846134
 40
2.882342287383037
 40
3.076543185718902
 40
3.32900435483536
 40
3.581465524568185
 40
3.775666424543471
 40
3.853346784558096
 40
3.89912067959487
 40
3.984129341791854
 40
4.029903236817174
 40
4.105797496059322
 40
4.295533144152313
 40
4.542189486611545
 40
4.788845828875478
 40
4.978581476409883
 40
5.054475735244123
 40
5.621734664339133
 40
6.13086724203718
 40
6.225249780948368
 40
6.318913039727036
 40
6.663579954558577
 40
7.0474989002244
 40
7.435230791575354
 40
7.498943906667766
 40
7.65087518120976
 40
7.832212509001271
 40
7.984143783696671
 40
8.047856898902797
 40
8.091554632732315
 40
8.172707566963954
 40
8.21640530076768
 40
8.28902178216055
 40
8.462184160756923
 40
8.668861838005046
 40
8.842024215263596
 40
8.91464069547482
 40
8.989881580861027
 40
9.15541152882695
 40
9.32094147774372
 40
9.39618235248698
 40
9.454709011143498
 40
9.583467660170475
 40
9.712226309012697
 40
9.770752957989194
 40
9.770752957989194
 40
9.770752957989194
 40
9.770752957989194
 10
128.7776824211452
 20
-84.45475146618139
 10
128.7577300691242
 20
-84.4547455924542
 10
128.6901990236084
 20
-84.45472571007927
 10
128.5665564681408
 20
-84.45506072293765
 10
128.4118132669676
 20
-84.45347761063576
 10
128.2952302002099
 20
-84.45769355953594
 10
128.0805895153861
 20
-84.44240229482465
 10
128.4773900926848
 20
-84.80256713527895
 10
128.5200608588887
 20
-85.01944931416922
 10
128.944411466623
 20
-85.20130372302641
 10
128.7694774015693
 20
-85.30470238246018
 10
128.6449476444703
 20
-85.51623911601368
 10
128.3921229755562
 20
-85.0464935381253
 10
128.1052555413244
 20
-84.39943917829565
 10
128.116128844628
 20
-84.70672762659396
 10
128.1137845297578
 20
-84.87166817842308
 10
128.111604864603
 20
-85.10575764102396
 10
128.1235726915965
 20
-85.34957362392306
 10
128.0942937260249
 20
-85.49599637953104
 10
128.1369475145089
 20
-85.64341944639553
 10
128.0494766525258
 20
-85.6276963750787
 10
128.0023480126363
 20
-85.62761131270634
 10
127.9153925727332
 20
-85.64346009331183
 10
127.9568426541342
 20
-85.49927663391324
 10
127.9284827523904
 20
-85.35600382115636
 10
127.9400926294919
 20
-85.11780487448826
 10
127.9379128167891
 20
-84.88938199573742
 10
127.9358063647613
 20
-84.72749705438093
 10
127.9462987957943
 20
-84.41301725480344
 10
127.6383915772513
 20
-85.10225963941649
 10
127.3310210787074
 20
-85.57978684571046
 10
127.2106319585894
 20
-85.35714322176662
 10
127.0329560430342
 20
-85.2444439985852
 10
127.5108278882513
 20
-85.06907291348628
 10
127.5608911576826
 20
-84.83363505562059
 10
127.9838752141335
 20
-84.44132445469475
 10
127.753170679316
 20
-84.45800127785029
 10
127.630463837896
 20
-84.45185915865318
 10
127.458043561528
 20
-84.46142612114517
 10
127.3468177214068
 20
-84.44006616324424
 10
127.2280732147067
 20
-84.47319169456671
 10
127.2438122226305
 20
-84.39251534207206
 10
127.2433503453381
 20
-84.34810020523236
 10
127.228283440955
 20
-84.26488353035556
 10
127.3627333455063
 20
-84.30392782830212
 10
127.4874708065365
 20
-84.27715705485667
 10
127.6883707756899
 20
-84.29391485770034
 10
127.8176493468972
 20
-84.27251208901086
 10
127.9583372447914
 20
-84.3058665596067
 10
127.9235879972234
 20
-84.16803559029022
 10
127.9477138186332
 20
-84.04492177464608
 10
127.9222038702012
 20
-83.92431379143757
 10
127.9588203666303
 20
-83.78915569672596
 10
127.8466369547389
 20
-83.81360889032197
 10
127.7535308976755
 20
-83.8014768497207
 10
127.6446500099438
 20
-83.80497804744093
 10
127.5824650160583
 20
-83.80473678862488
 10
127.5630322076865
 20
-83.80466139689945
 97
        3
330
A6
330
A4
330
A5
 75
     1
 76
     2
 52
45.0
 41
0.1
 77
     0
 78
     1
 53
45.0
 43
0.0
 44
0.0
 45
-0.282842712474619
 46
0.0
 79
     0
 98
        1
 10
0.0
 20
0.0
  0
HATCH
  5
C4
330
48
100
AcDbEntity
  8
1
  6
Continuous
 62
     2
100
AcDbHatch
 10
0.0
 20
0.0
 30
0.0
210
0.0
220
0.0
230
1.0
  2
CUSTOM2
 70
     0
 71
     1
 91
        1
 92
        1
 93
        1
 72
     4
 94
        3
 73
     0
 74
     0
 95
      124
 96
      120
 40
0.0
 40
0.0
 40
0.0
 40
0.0
 40
0.027818722962451
 40
0.1011590162384554
 40
0.2048470170590523
 40
0.323708871655953
 40
0.4425707262522568
 40
0.5462587270700116
 40
0.619599020331265
 40
0.6474177522579513
 40
0.675006073611613
 40
0.735700385524354
 40
0.7963946998055327
 40
0.8239830245572655
 40
0.8540933811103748
 40
0.937339662940986
 40
1.063094687343352
 40
1.22073126863819
 40
1.399622220914893
 40
1.589140358637878
 40
1.778658496423987
 40
1.957549448940683
 40
2.115186030873304
 40
2.240941056914637
 40
2.324187341760678
 40
2.354297700109556
 40
2.381886024672071
 40
2.442580338710656
 40
2.503274652750677
 40
2.530862977314784
 40
2.560983949278708
 40
2.640393784453111
 40
2.752662861759277
 40
2.881361560118294
 40
3.010060258455341
 40
3.122329335705516
 40
3.20173917081813
 40
3.231860142753491
 40
3.264298024030553
 40
3.35234370177841
 40
3.482095226868922
 40
3.639650650173196
 40
3.811108022565649
 40
3.982565394928145
 40
4.140120818152739
 40
4.269872343141444
 40
4.357918020802502
 40
4.390355902044136
 40
4.423256253992705
 40
4.508104530073227
 40
4.624121560636966
 40
4.750528176031723
 40
4.866545206602169
 40
4.951393482692127
 40
4.984293834645528
 40
5.01145083324245
 40
5.071196230152226
 40
5.130941627057298
 40
5.158098625648962
 40
5.190998977601624
 40
5.27584725368945
 40
5.391864284256912
 40
5.518270899648457
 40
5.63428793020944
 40
5.719136206288113
 40
5.752036558236029
 40
5.782130946283062
 40
5.86278390622924
 40
5.979550131775086
 40
6.117984316640517
 40
6.263641154588059
 40
6.402075339414254
 40
6.518841564908059
 40
6.599494524815641
 40
6.629588912848875
 40
6.654403028226452
 40
6.713575149488247
 40
6.784199939329622
 40
6.843372060493724
 40
6.868186175802969
 40
6.896246243202055
 40
6.939586233758529
 40
6.967846564565161
 40
7.043584251090106
 40
7.153234334451948
 40
7.283231855734694
 40
7.420011856035725
 40
7.550009376580103
 40
7.659659458835502
 40
7.735397144417487
 40
7.763657474851666
 40
7.796409728011323
 40
7.880876065096597
 40
7.996370852465983
 40
8.122208446418849
 40
8.237703224799471
 40
8.322169562011194
 40
8.354921815206179
 40
8.382078813307952
 40
8.441824209207265
 40
8.501569605240416
 40
8.528726603485989
 40
8.561478856696038
 40
8.645945193878088
 40
8.761439980865628
 40
8.887277580764742
 40
9.002772362001263
 40
9.087238696661455
 40
9.119990949235937
 40
9.152428830613626
 40
9.240474508638851
 40
9.370226034149805
 40
9.527781457984684
 40
9.699238830981667
 40
9.870696203978877
 40
10.02825162781431
 40
10.15800315332592
 40
10.24604883135146
 40
10.27848670378549
 40
10.27848670378549
 40
10.27848670378549
 40
10.27848670378549
 10
137.0076780084002
 20
-85.38044917428333
 10
137.0169507257143
 20
-85.38044936302816
 10
137.0506697056479
 20
-85.38045003937377
 10
137.1189659332085
 20
-85.3804362757078
 10
137.2175094231198
 20
-85.38052210594547
 10
137.3317018984431
 20
-85.38013679201838
 10
137.4440846936691
 20
-85.38154598916543
 10
137.5469329119738
 20
-85.37736317391847
 10
137.6061792394468
 20
-85.3863234556211
 10
137.6626218456653
 20
-85.37291000288027
 10
137.6501208106575
 20
-85.4236823620073
 10
137.6584502155322
 20
-85.46866113875018
 10
137.650312336074
 20
-85.51398681823606
 10
137.6625481734077
 20
-85.56523502405621
 10
137.6002726009954
 20
-85.5500747944882
 10
137.5315465546487
 20
-85.56095684103343
 10
137.4037709269211
 20
-85.55544130066122
 10
137.2517937031262
 20
-85.55754583560386
 10
137.0757648492142
 20
-85.55684432225621
 10
136.8899384453906
 20
-85.55710197282795
 10
136.7041119956795
 20
-85.55684429669492
 10
136.5280832661787
 20
-85.55754592966355
 10
136.3761056673814
 20
-85.555441025841
 10
136.2483310184173
 20
-85.5609575404645
 10
136.1796030356199
 20
-85.5500735768815
 10
136.1173301562502
 20
-85.56523648129883
 10
136.1295568809636
 20
-85.51397924008918
 10
136.1214956982216
 20
-85.46872961541666
 10
136.1295628329511
 20
-85.42349076858767
 10
136.1173191006702
 20
-85.37221257904133
 10
136.1779969640316
 20
-85.38705857450957
 10
136.2417763265354
 20
-85.37698986643355
 10
136.3532266873122
 20
-85.3816079060209
 10
136.4752485963442
 20
-85.38042105908619
 10
136.5974490657443
 20
-85.37939570913456
 10
136.708474680701
 20
-85.38362959190684
 10
136.7731469933577
 20
-85.37436850292356
 10
136.834611533012
 20
-85.38851011764406
 10
136.8185018120956
 20
-85.32219906929573
 10
136.8297932846977
 20
-85.25007644692113
 10
136.8242353342179
 20
-85.11941673925804
 10
136.8262987581309
 20
-84.96848111105848
 10
136.8255119646913
 20
-84.80119561706205
 10
136.8262797735246
 20
-84.63394324481789
 10
136.8242991305248
 20
-84.48292145544178
 10
136.8296258676239
 20
-84.35249365261095
 10
136.8188053908044
 20
-84.27989992208191
 10
136.8345278949494
 20
-84.21304965377291
 10
136.7687660652109
 20
-84.22874922323265
 10
136.7011320350383
 20
-84.218461917301
 10
136.5870837813429
 20
-84.22341647966967
 10
136.4706195194522
 20
-84.22041306783613
 10
136.3561506641095
 20
-84.225751316707
 10
136.2895277177432
 20
-84.21454166739268
 10
136.2245722234804
 20
-84.23106302149077
 10
136.2362942278327
 20
-84.17981714337031
 10
136.228778270874
 20
-84.1350510103
 10
136.2362942398454
 20
-84.09028489916128
 10
136.2245722024966
 20
-84.03903898684351
 10
136.2895278858819
 20
-84.05556053047272
 10
136.356148585944
 20
-84.04434863440144
 10
136.4706305377682
 20
-84.04969998103425
 10
136.5870406956581
 20
-84.04664246042972
 10
136.701261269426
 20
-84.05176935803385
 10
136.7685102958846
 20
-84.04109701458486
 10
136.8338278461057
 20
-84.05713352145017
 10
136.8196343968172
 20
-83.99505749064035
 10
136.8291011982614
 20
-83.92868673185329
 10
136.8245221523704
 20
-83.81215462072124
 10
136.8262649075567
 20
-83.68028749791716
 10
136.825250401501
 20
-83.53839474663815
 10
136.8272143863991
 20
-83.40686384111508
 10
136.821962107347
 20
-83.28930857531088
 10
136.8328361283093
 20
-83.22507645812505
 10
136.8174489161472
 20
-83.16346632269043
 10
136.8662544057419
 20
-83.17753027431982
 10
136.9108948084344
 20
-83.17500692738773
 10
136.9793596466362
 20
-83.17942637412379
 10
137.0214058688722
 20
-83.1884240927006
 10
137.0742497278395
 20
-83.18043719947578
 10
137.0461987521633
 20
-83.22341517202422
 10
137.0004094768213
 20
-83.21195882770247
 10
137.0124491592884
 20
-83.27281914808955
 10
137.005103859026
 20
-83.33686135345312
 10
137.0086148345781
 20
-83.44546065950179
 10
137.0074759279792
 20
-83.56961115669336
 10
137.0074127299882
 20
-83.70265714984212
 10
137.0087825486486
 20
-83.82658053564529
 10
137.0046591320933
 20
-83.93587096964752
 10
137.0132715623183
 20
-83.99846854719922
 10
137.0001709974021
 20
-84.05715301517724
 10
137.0648836847817
 20
-84.04093321003187
 10
137.1315358472774
 20
-84.05185174430781
 10
137.2453732060721
 20
-84.0466169464033
 10
137.3612211641716
 20
-84.04969887297182
 10
137.4751876782899
 20
-84.04437175001578
 10
137.5415293537718
 20
-84.05551226647543
 10
137.6062141045099
 20
-84.03908455220915
 10
137.5944773292341
 20
-84.09029509604039
 10
137.602012058266
 20
-84.1350510069309
 10
137.5944773511877
 20
-84.17980695804064
 10
137.6062140660355
 20
-84.23101743943049
 10
137.5415296594871
 20
-84.21459007019865
 10
137.4751838950444
 20
-84.22572650366823
 10
137.361241200663
 20
-84.22042318920967
 10
137.2452948142674
 20
-84.22340670220547
 10
137.1317709401741
 20
-84.21848542545698
 10
137.0644183838422
 20
-84.22870347300567
 10
136.9989237642114
 20
-84.21309438675276
 10
137.0146666138836
 20
-84.27991582986674
 10
137.0038228517832
 20
-84.35248376998211
 10
137.009153414941
 20
-84.48293187199671
 10
137.0072088671475
 20
-84.63390876628864
 10
137.0078086202833
 20
-84.8013319087993
 10
137.0076459079224
 20
-84.96799258695718
 10
137.0076848007755
 20
-85.12095291892456
 10
137.0076768932717
 20
-85.24606255828382
 10
137.0076780902365
 20
-85.32947543822675
 10
137.0076780235827
 20
-85.36963656532112
 10
137.0076780084002
 20
-85.38044917428333
 97
        1
330
A7
 75
     1
 76
     2
 52
45.0
 41
0.1
 77
     0
 78
     1
 53
45.0
 43
0.0
 44
0.0
 45
-0.282842712474619
 46
0.0
 79
     0
 98
        1
 10
0.0
 20
0.0
  0
HATCH
  5
C5
330
48
100
AcDbEntity
  8
1
  6
Continuous
 62
     2
100
AcDbHatch
 10
0.0
 20
0.0
 30
0.0
210
0.0
220
0.0
230
1.0
  2
CUSTOM3
 70
     0
 71
     1
 91
        1
 92
        1
 93
        1
 72
     4
 94
        3
 73
     0
 74
     0
 95
      131
 96
      127
 40
0.0
 40
0.0
 40
0.0
 40
0.0
 40
0.0195577029826204
 40
0.0426490537460607
 40
0.2863607575855951
 40
0.5344948436188643
 40
0.7842238845572738
 40
0.8737315789466823
 40
0.9803832810312634
 40
1.092842274517009
 40
1.199761146656775
 40
1.289788768186478
 40
1.351573580786146
 40
1.3707271175614
 40
1.416400936017779
 40
1.470914848355936
 40
1.516588666791725
 40
1.535742203552803
 40
1.634216592293147
 40
1.760283341174991
 40
1.897966686682107
 40
2.031216387368907
 40
2.049689751137912
 40
2.101115601646846
 40
2.179502577739974
 40
2.278859318314083
 40
2.393194462258741
 40
2.516516648383849
 40
2.642834515405973
 40
2.766156701983483
 40
2.880491846754587
 40
2.979848588358657
 40
3.058235565443788
 40
3.109661416668949
 40
3.128134780704137
 40
3.146783742386454
 40
3.191254343315286
 40
3.244332157315917
 40
3.288802758225792
 40
3.307451719895035
 40
3.327717853844653
 40
3.383747753580003
 40
3.468388665924415
 40
3.57448783769869
 40
3.694892515728817
 40
3.822449946851954
 40
3.950007377920336
 40
4.070412055800425
 40
4.176511227367989
 40
4.261152139501426
 40
4.31718203907662
 40
4.33744817296455
 40
4.620011002696193
 40
4.885096638397505
 40
4.945373043518281
 40
5.0141077104886
 40
5.07048172765201
 40
5.319246955636534
 40
5.584812164506077
 40
5.859000912056899
 40
6.133746937542066
 40
6.401732212968842
 40
6.420736683995433
 40
6.472845717451055
 40
6.550702743894011
 40
6.646951193874191
 40
6.754234497930543
 40
6.865196086587293
 40
6.972479390357751
 40
7.068727839771913
 40
7.146584865450922
 40
7.198693898189152
 40
7.217698368905292
 40
7.234950401630773
 40
7.276089864269796
 40
7.325191803515924
 40
7.366331266090302
 40
7.383583298769654
 40
7.40277916349206
 40
7.453386443254491
 40
7.524934666445521
 40
7.606953361405804
 40
7.688972056428984
 40
7.760520279784235
 40
7.811127559734476
 40
7.830323424546126
 40
7.847844055299749
 40
7.894799345666787
 40
7.962779392744483
 40
8.04337429356055
 40
8.128174145149462
 40
8.208769044817235
 40
8.27674909037697
 40
8.323704379669525
 40
8.341225010056252
 40
8.358497614800429
 40
8.401679126686606
 40
8.457815092185607
 40
8.513951057728038
 40
8.557132569707965
 40
8.574405174505008
 40
8.602340668616353
 40
8.643455660539946
 40
8.663225271966628
 40
8.715345156564272
 40
8.789031889628607
 40
8.873502045520329
 40
8.957972194323947
 40
9.031658925567857
 40
9.083778811234541
 40
9.103548423003009
 40
9.119550083123574
 40
9.160817522379848
 40
9.217244429110213
 40
9.278724491644699
 40
9.335151398295483
 40
9.376418837357779
 40
9.392420497300566
 40
9.401196302734816
 40
9.417494229384264
 40
9.426270027749565
 40
9.440875075477576
 40
9.47570249699878
 40
9.517270709865942
 40
9.552098131994113
 40
9.566703169884319
 40
9.566703169884319
 40
9.566703169884319
 40
9.566703169884319
 10
136.2425206668098
 20
-83.72439563303062
 10
136.238929761299
 20
-83.73001744111932
 10
136.2310991643243
 20
-83.74227680394974
 10
136.1384921494168
 20
-83.77853518773146
 10
136.1142574752866
 20
-83.99306990601364
 10
136.0113662365558
 20
-84.17258150304386
 10
135.7475444883925
 20
-84.35839861015944
 10
135.9100424088799
 20
-84.43496098248006
 10
135.9862178280458
 20
-84.49598741618647
 10
136.0747123592378
 20
-84.55939630269333
 10
136.164488275273
 20
-84.61929800594528
 10
136.2138770155665
 20
-84.6735327996488
 10
136.3000660677001
 20
-84.70169194272258
 10
136.2666213193848
 20
-84.73742125161277
 10
136.246962368593
 20
-84.76905046822185
 10
136.2174840737501
 20
-84.80979562018021
 10
136.194394196565
 20
-84.83950771324447
 10
136.1635158487976
 20
-84.89244012145596
 10
136.0984145885359
 20
-84.76715099875182
 10
136.0050952642034
 20
-84.71241534580156
 10
135.9205588804757
 20
-84.65539010874748
 10
135.7977450645361
 20
-84.49780147386569
 10
135.801940336692
 20
-84.57419628047252
 10
135.8006431172297
 20
-84.62094154652796
 10
135.8013078967695
 20
-84.69870649001489
 10
135.8010502506575
 20
-84.79553366489668
 10
135.8011383759541
 20
-84.90805155735282
 10
135.8011029821899
 20
-85.0293134886839
 10
135.8011464277898
 20
-85.15368536955128
 10
135.8010152462025
 20
-85.27487751182754
 10
135.8014430081665
 20
-85.38764285894344
 10
135.8001630721929
 20
-85.48372521045346
 10
135.8034712370663
 20
-85.5634160834539
 10
135.7970150259705
 20
-85.60640259025304
 10
135.8061161225175
 20
-85.64500002442045
 10
135.7702862859554
 20
-85.63644547090023
 10
135.7370176334871
 20
-85.64112914828641
 10
135.685951509566
 20
-85.64104136054307
 10
135.6524676492432
 20
-85.63661004530272
 10
135.6162537928373
 20
-85.64494640971576
 10
135.6264735088285
 20
-85.60310157634807
 10
135.6191440407393
 20
-85.55676873993912
 10
135.6228585655722
 20
-85.47080603708075
 10
135.6214433074516
 20
-85.36850292109239
 10
135.6219058074258
 20
-85.25002210882577
 10
135.621772620585
 20
-85.12497751660732
 10
135.6217968429665
 20
-84.9997960670704
 10
135.6218307445171
 20
-84.88168789435029
 10
135.6217012812752
 20
-84.77826686104575
 10
135.62204600687
 20
-84.6952339866042
 10
135.621365079831
 20
-84.64312066292847
 10
135.6249539120242
 20
-84.51542526992722
 10
135.4081123906057
 20
-84.8140671799447
 10
135.2276307441568
 20
-85.04191453302577
 10
135.1745274815231
 20
-84.90081991524274
 10
135.1455381652768
 20
-84.85129667253148
 10
135.0451600582439
 20
-84.74813655023986
 10
135.366008024288
 20
-84.66760399790307
 10
135.4944849525049
 20
-84.4838915177766
 10
135.7161406844978
 20
-84.27523439042325
 10
135.8025177413689
 20
-84.10116223585754
 10
136.0804346748692
 20
-83.8248838347157
 10
135.9601200358903
 20
-83.82920875262978
 10
135.9118149870968
 20
-83.82840578611535
 10
135.8357329974523
 20
-83.82880852667509
 10
135.7421962529369
 20
-83.82865159202478
 10
135.6372547308176
 20
-83.82872932237868
 10
135.5288840258337
 20
-83.82859970435537
 10
135.4236406755516
 20
-83.82901041323396
 10
135.3311190339032
 20
-83.827733611425
 10
135.2523083320327
 20
-83.83114668279242
 10
135.2094627084999
 20
-83.82432084777767
 10
135.1704452106134
 20
-83.83390370612966
 10
135.1781317791483
 20
-83.80034655248546
 10
135.1740416923931
 20
-83.76931884491859
 10
135.1740483888433
 20
-83.7221890554319
 10
135.1781192244532
 20
-83.69114493167316
 10
135.1704448094201
 20
-83.65753573178186
 10
135.2089771925114
 20
-83.66707024393222
 10
135.2496180534099
 20
-83.66057999316017
 10
135.3206424370083
 20
-83.66355284163838
 10
135.3984270669253
 20
-83.66280673414931
 10
135.4762244766093
 20
-83.66207620769565
 10
135.5472184609527
 20
-83.6650119929993
 10
135.5879232311439
 20
-83.65859966041134
 10
135.626480600953
 20
-83.66804910638089
 10
135.6182295274546
 20
-83.63190742655307
 10
135.6237299188978
 20
-83.59325597200862
 10
135.6210706725782
 20
-83.52541906252253
 10
135.6220767991153
 20
-83.4486379327535
 10
135.6215130537939
 20
-83.36606041231332
 10
135.6225667046212
 20
-83.2893810558421
 10
135.619762838275
 20
-83.2212344403739
 10
135.6255655240923
 20
-83.1832303500474
 10
135.6170607070778
 20
-83.14696986736442
 10
135.6510562752745
 20
-83.15699711042238
 10
135.6849528202719
 20
-83.15382168000382
 10
135.7381621579966
 20
-83.15946469173484
 10
135.7915721094102
 20
-83.1602066037766
 10
135.825086716911
 20
-83.16636211331115
 10
135.8643038702658
 20
-83.16109405040494
 10
135.8375216218111
 20
-83.20202054020604
 10
135.7963063521343
 20
-83.19084230275976
 10
135.8037594060492
 20
-83.23588378621965
 10
135.7997180471804
 20
-83.28043156785948
 10
135.8016666569259
 20
-83.35231862192384
 10
135.8007317369377
 20
-83.43286804225318
 10
135.8020059709648
 20
-83.51281439409094
 10
135.7986996313483
 20
-83.58613597730908
 10
135.8057058699579
 20
-83.62766791811521
 10
135.7956392899745
 20
-83.66703016245978
 10
135.828476732354
 20
-83.65987371383106
 10
135.8619529816099
 20
-83.66428191676145
 10
135.9170005995637
 20
-83.66237491466188
 10
135.9744455114934
 20
-83.662700684068
 10
136.0277978767928
 20
-83.6634912608101
 10
136.0653493416258
 20
-83.6614147569601
 10
136.0878125042856
 20
-83.66433096646985
 10
136.100663059335
 20
-83.65882882170033
 10
136.1113208205508
 20
-83.65654316616302
 10
136.1241588169762
 20
-83.64960462226033
 10
136.140094355269
 20
-83.66602388500425
 10
136.1665576440511
 20
-83.67746312494637
 10
136.1981757773377
 20
-83.698107469789
 10
136.224220841177
 20
-83.71338565185796
 10
136.2383470243593
 20
-83.72188458490905
 10
136.2425206668098
 20
-83.72439563303062
 97
        1
330
A8
 75
     1
 76
     2
 52
45.0
 41
0.1
 77
     0
 78
     1
 53
45.0
 43
0.0
 44
0.0
 45
-0.282842712474619
 46
0.0
 79
     0
 98
        1
 10
0.0
 20
0.0
  0
HATCH
  5
C6
330
48
100
AcDbEntity
  8
1
  6
Continuous
 62
     2
100
AcDbHatch
 10
0.0
 20
0.0
 30
0.0
210
0.0
220
0.0
230
1.0
  2
CUSTOM4
 70
     0
 71
     1
 91
        1
 92
        1
 93
        1
 72
     4
 94
        3
 73
     0
 74
     0
 95
       91
 96
       87
 40
0.0
 40
0.0
 40
0.0
 40
0.0
 40
0.0267532254356701
 40
0.0856103386464049
 40
0.1444674521996638
 40
0.1712206856618657
 40
0.2039416005642678
 40
0.2955601971652626
 40
0.4362601844617344
 40
0.6162252844507676
 40
0.8256392189705124
 40
1.054685709844482
 40
1.293548478893602
 40
1.532411247938346
 40
1.761457738799639
 40
1.970871673298608
 40
2.150836773256803
 40
2.291536760495664
 40
2.3831553568368
 40
2.41587628410142
 40
2.442629517488062
 40
2.501486630949192
 40
2.560343744424363
 40
2.587096977826623
 40
2.617068194441051
 40
2.69924733675622
 40
2.822032643466504
 40
2.973822353258062
 40
3.143014704823504
 40
3.318007936880083
 40
3.487200288186945
 40
3.638989997548426
 40
3.761775303794953
 40
3.843954445753259
 40
3.873925662229984
 40
3.89081277350069
 40
3.907699884771868
 40
3.937960767857435
 40
3.980983618142413
 40
4.199085915228585
 40
4.439444339237396
 40
4.677588241261035
 40
5.050698317837921
 40
5.448212454763335
 40
5.855291218044946
 40
6.138575438885696
 40
6.417434507584532
 40
6.444551104394194
 40
6.504207617363521
 40
6.563864130314896
 40
6.590980727104458
 40
6.848609460381883
 40
7.109611990668822
 40
7.352910904446472
 40
7.557830220705892
 40
7.587518925913833
 40
7.652834077376285
 40
7.718149228846241
 40
7.747837934062541
 40
7.854880190301479
 40
7.976511257404012
 40
8.369487896592842
 40
8.75751495922422
 40
9.126072419331656
 40
9.460639380392747
 40
9.74669559303646
 40
9.77756994311923
 40
9.807050320932326
 40
9.830377336129452
 40
9.886003295436527
 40
9.952395569430443
 40
10.00802152870681
 40
10.03134854388273
 40
10.21356951009649
 40
10.42203479292926
 40
10.66154556731122
 40
10.91693789564363
 40
11.15832906556624
 40
11.18982674596678
 40
11.27286608520465
 40
11.39026653033413
 40
11.5248475284095
 40
11.65942852648512
 40
11.77682897161553
 40
11.85986831085749
 40
11.89136598230498
 40
11.89136598230498
 40
11.89136598230498
 40
11.89136598230498
 10
132.3282837527815
 20
-84.68755834112318
 10
132.3283190284907
 20
-84.67867587502106
 10
132.3284319230415
 20
-84.65025197766744
 10
132.3267937088107
 20
-84.60045795644288
 10
132.332470281253
 20
-84.55797870335932
 10
132.3211881251325
 20
-84.50725279957241
 10
132.3887249498651
 20
-84.52442534073975
 10
132.4642981730319
 20
-84.51165207648098
 10
132.608330957562
 20
-84.51825705356703
 10
132.7824371705046
 20
-84.51566972607625
 10
132.9894552130622
 20
-84.51654842858534
 10
133.2149640691997
 20
-84.51627226894064
 10
133.4506114813025
 20
-84.51637095155425
 10
133.6862593050967
 20
-84.51627250401326
 10
133.9117670100245
 20
-84.51654756623296
 10
134.1187887152424
 20
-84.51567248543356
 10
134.2928841434908
 20
-84.51824912135646
 10
134.4369444591604
 20
-84.51167144364874
 10
134.5124644434913
 20
-84.52439191408486
 10
134.5800728556649
 20
-84.50729034622401
 10
134.5685792660296
 20
-84.5578064901115
 10
134.5760057101353
 20
-84.60202182587591
 10
134.5683791447606
 20
-84.64587468310478
 10
134.5801441979045
 20
-84.69577060334765
 10
134.5185741011602
 20
-84.68062207101573
 10
134.4511744258291
 20
-84.69144769463419
 10
134.3267956575841
 20
-84.68603403187849
 10
134.1809380756191
 20
-84.68806229423312
 10
134.0148528959704
 20
-84.68739657235703
 10
133.8443365141343
 20
-84.68765791292849
 10
133.6774743375008
 20
-84.68733881422997
 10
133.5342299346725
 20
-84.68820132223328
 10
133.4028266389453
 20
-84.68592134331098
 10
133.3494811654276
 20
-84.69047730439893
 10
133.2740140976531
 20
-84.68455519821211
 10
133.3024028298851
 20
-84.69361265470738
 10
133.3288604929161
 20
-84.6972952254516
 10
133.2888475427321
 20
-84.72801162845818
 10
133.1968616211488
 20
-84.71787843639457
 10
133.1694348726688
 20
-84.96422932566303
 10
133.0733746486854
 20
-85.1195587604972
 10
132.8172230484092
 20
-85.44930016882518
 10
133.3882490252382
 20
-85.3102541260364
 10
133.6428608840135
 20
-85.31163654840725
 10
134.2534599568238
 20
-85.39664865572007
 10
133.9595651097702
 20
-85.09770017255886
 10
133.6388256806135
 20
-84.9512457791231
 10
133.7568495880053
 20
-84.89429893995802
 10
133.797966898588
 20
-84.8703533494074
 10
133.841176491403
 20
-84.84855676002857
 10
133.9429526614069
 20
-84.78526713560188
 10
134.0583820144867
 20
-85.04308283405305
 10
134.2584544161897
 20
-85.17839393700407
 10
134.3524029906847
 20
-85.35662639675208
 10
134.5813782266014
 20
-85.51457613787045
 10
134.4850984366327
 20
-85.56539462237788
 10
134.4422912283399
 20
-85.59574142291038
 10
134.3973196048398
 20
-85.61989304532632
 10
134.3376673444833
 20
-85.6690328806652
 10
134.3044683580944
 20
-85.53457959140482
 10
134.1836965870416
 20
-85.37861169527503
 10
133.8225928525598
 20
-85.50885506754538
 10
133.464001447516
 20
-85.49230740404602
 10
133.0825872969698
 20
-85.50124205462227
 10
132.795840780251
 20
-85.56572763141685
 10
132.4847008119334
 20
-85.4522476662126
 10
132.4523690338407
 20
-85.56333174886322
 10
132.4151130772937
 20
-85.58259120964074
 10
132.4120690152373
 20
-85.53580650726796
 10
132.3934845380226
 20
-85.49648580894954
 10
132.3767389136397
 20
-85.43689451335857
 10
132.3638683435372
 20
-85.39253464942807
 10
132.3297280326048
 20
-85.30349103693885
 10
132.5737666977372
 20
-85.37274391870321
 10
132.7696347006291
 20
-85.39425065756343
 10
132.8650378900896
 20
-85.11228950335625
 10
132.9200088289217
 20
-84.95092389392967
 10
133.1414571876776
 20
-84.68064257224353
 10
133.0104191900836
 20
-84.68906987960357
 10
132.9364979075474
 20
-84.68676426317117
 10
132.8232412395864
 20
-84.68784056492439
 10
132.6949204327103
 20
-84.68747795737576
 10
132.5659204550034
 20
-84.68757710348005
 10
132.454279346591
 20
-84.6875550210152
 10
132.3769616489645
 20
-84.6875585562442
 10
132.3387829051629
 20
-84.6875583896901
 10
132.3282837527815
 20
-84.68755834112318
 97
        1
330
A9
 75
     1
 76
     2
 52
45.0
 41
0.1
 77
     0
 78
     1
 53
45.0
 43
0.0
 44
0.0
 45
-0.282842712474619
 46
0.0
 79
     0
 98
        1
 10
0.0
 20
0.0
  0
HATCH
  5
C7
330
48
100
AcDbEntity
  8
1
  6
Continuous
 62
     2
100
AcDbHatch
 10
0.0
 20
0.0
 30
0.0
210
0.0
220
0.0
230
1.0
  2
CUSTOM5
 70
     0
 71
     1
 91
        1
 92
        1
 93
        1
 72
     4
 94
        3
 73
     0
 74
     0
 95
       35
 96
       31
 40
0.0
 40
0.0
 40
0.0
 40
0.0
 40
0.0335231036620645
 40
0.0713218571712025
 40
0.4278866681486924
 40
0.8116865841964015
 40
1.198190238000054
 40
1.561379546812705
 40
1.659983174622031
 40
1.759315573807216
 40
2.132719617231057
 40
2.525233363588786
 40
2.910815397779713
 40
3.265244364303287
 40
3.592606723581991
 40
3.964386154603965
 40
4.359942131737826
 40
4.758154118639338
 40
4.843846538699941
 40
4.936650065543196
 40
5.256616602537258
 40
5.581707404415948
 40
5.899719158308057
 40
6.198363494280653
 40
6.466301046615722
 40
6.493895311536986
 40
6.559697020196779
 40
6.638234543442326
 40
6.704036252154079
 40
6.731630508422857
 40
6.731630508422857
 40
6.731630508422857
 40
6.731630508422857
 10
133.5990963088288
 20
-83.15991591094955
 10
133.5930958617408
 20
-83.16974744271765
 10
133.5803296618776
 20
-83.19066446234294
 10
133.4204314526173
 20
-83.22328308281384
 10
133.8576978361956
 20
-83.51248754477396
 10
134.060034734788
 20
-83.71414296455649
 10
134.3074516787592
 20
-83.9570604721082
 10
134.8086466144225
 20
-84.03407772056308
 10
134.6380514718589
 20
-84.17578495639435
 10
134.563825198282
 20
-84.37745068604981
 10
134.2386384767807
 20
-84.02499147639364
 10
133.9532694190283
 20
-83.86280222254523
 10
133.6592556597277
 20
-83.65768304761048
 10
133.4339405210753
 20
-83.17627946218633
 10
133.2248037575142
 20
-83.64112388204872
 10
132.9462826194453
 20
-83.85104482561177
 10
132.6626335696828
 20
-84.02030978454101
 10
132.3333592047451
 20
-84.39313073906156
 10
132.2531964837843
 20
-84.1974742035509
 10
132.1014677429365
 20
-84.06964330623488
 10
132.5338348346414
 20
-83.99001403048155
 10
132.7217517849385
 20
-83.79428799898614
 10
132.9723429940122
 20
-83.57822437897335
 10
133.1969302989781
 20
-83.41264442514034
 10
133.2514727929332
 20
-83.13321470177266
 10
133.3749613548631
 20
-83.14717484406009
 10
133.4315225864139
 20
-83.14934165946443
 10
133.5016823504564
 20
-83.15408574932732
 10
133.5588366541724
 20
-83.15746005463545
 10
133.5899142840458
 20
-83.15935580102972
 10
133.5990963088288
 20
-83.15991591094955
 97
        1
330
AA
 75
     1
 76
     2
 52
45.0
 41
0.1
 77
     0
 78
     1
 53
45.0
 43
0.0
 44
0.0
 45
-0.282842712474619
 46
0.0
 79
     0
 98
        1
 10
0.0
 20
0.0
  0
HATCH
  5
C8
330
48
100
AcDbEntity
  8
1
  6
Continuous
 62
     2
100
AcDbHatch
 10
0.0
 20
0.0
 30
0.0
210
0.0
220
0.0
230
1.0
  2
CUSTOM6
 70
     0
 71
     1
 91
        1
 92
        1
 93
        1
 72
     4
 94
        3
 73
     0
 74
     0
 95
       15
 96
       11
 40
0.0
 40
0.0
 40
0.0
 40
0.0
 40
0.2785535985095868
 40
0.5215624748198693
 40
0.6076917376040255
 40
0.6938210001741428
 40
0.940501914645543
 40
1.221691403489171
 40
1.300471877081143
 40
1.379252341684951
 40
1.379252341684951
 40
1.379252341684951
 40
1.379252341684951
 10
131.1936446150619
 20
-83.16525167483708
 10
131.2550970313798
 20
-83.21763788221375
 10
131.3701602493733
 20
-83.31572558015871
 10
131.6652301016864
 20
-83.46565648916867
 10
131.5280100151476
 20
-83.55112207299078
 10
131.4296180363397
 20
-83.68369649612532
 10
131.3384986110269
 20
-83.37838449032674
 10
130.9891792000274
 20
-83.31487565348712
 10
131.137421089619
 20
-83.21558924933211
 10
131.1749034393857
 20
-83.18203086411708
 10
131.1936446150619
 20
-83.16525167483708
 97
        1
330
AB
 75
     1
 76
     2
 52
45.0
 41
0.1
 77
     0
 78
     1
 53
45.0
 43
0.0
 44
0.0
 45
-0.282842712474619
 46
0.0
 79
     0
 98
        1
 10
0.0
 20
0.0
  0
HATCH
  5
C9
330
48
100
AcDbEntity
  8
1
  6
Continuous
 62
     2
100
AcDbHatch
 10
0.0
 20
0.0
 30
0.0
210
0.0
220
0.0
230
1.0
  2
CUSTOM7
 70
     0
 71
     1
 91
        1
 92
        1
 93
        1
 72
     4
 94
        3
 73
     0
 74
     0
 95
       75
 96
       71
 40
0.0
 40
0.0
 40
0.0
 40
0.0
 40
0.034254609912978
 40
0.1245622414432151
 40
0.2522385480897358
 40
0.3985991922940715
 40
0.5449598364980803
 40
0.6726361431438763
 40
0.7629437746737013
 40
0.7971983935297973
 40
1.101723623449688
 40
1.408591244036697
 40
1.433332471690423
 40
1.4877631724502
 40
1.542193873082039
 40
1.56693510059259
 40
1.923523931821899
 40
2.271755704953704
 40
2.590579755100972
 40
2.85894330558123
 40
2.889120339309222
 40
2.918305855191126
 40
2.941366645531265
 40
2.996357760973152
 40
3.0619923181407
 40
3.116983433626922
 40
3.140044223997606
 40
3.411273122936553
 40
3.732441619741191
 40
3.761068217532891
 40
3.837787499630462
 40
3.948858699126102
 40
4.080541049104479
 40
4.219093782625844
 40
4.350776132722398
 40
4.461847332405736
 40
4.538566614678469
 40
4.567193212544719
 40
4.594907573998977
 40
4.666381453557488
 40
4.764111044011099
 40
4.870592538125873
 40
4.968322128642296
 40
5.039796008286981
 40
5.067510369784411
 40
5.094263603185606
 40
5.153120716668251
 40
5.211977830150698
 40
5.238731063551707
 40
5.272290535138975
 40
5.363380529444807
 40
5.497618415781456
 40
5.660621563453727
 40
5.8380073417494
 40
6.015393119910751
 40
6.178396267038377
 40
6.3126341518423
 40
6.403724143059318
 40
6.437283612672413
 40
6.46403684626102
 40
6.522893960004634
 40
6.581751071483918
 40
6.608504301590852
 40
6.637253941280999
 40
6.711397748902851
 40
6.812778057283492
 40
6.923237199249268
 40
7.02461750762394
 40
7.098761315207593
 40
7.127510946007572
 40
7.127510946007572
 40
7.127510946007572
 40
7.127510946007572
 10
130.0673574910183
 20
-84.43606306340826
 10
130.0673575339326
 20
-84.44748121405368
 10
130.0673577000748
 20
-84.48900176971465
 10
130.0673545601405
 20
-84.57308512810314
 10
130.0673740799419
 20
-84.69450937491763
 10
130.0672864707356
 20
-84.83474940766638
 10
130.0676068754849
 20
-84.97448878019514
 10
130.0666558429359
 20
-85.0971039591916
 10
130.0686931115586
 20
-85.17868360376049
 10
130.0604385698364
 20
-85.33184167736388
 10
130.3685750460521
 20
-85.1689519875937
 10
130.6605597693354
 20
-84.99972496126088
 10
130.6663306968327
 20
-85.13482199032178
 10
130.6710424239509
 20
-85.17838213653646
 10
130.6737487931537
 20
-85.22244185463542
 10
130.6927498192579
 20
-85.37182844450965
 10
130.2838894766921
 20
-85.3077426257282
 10
130.0048662868451
 20
-85.42159093403075
 10
129.7273034106786
 20
-85.52091339002952
 10
129.4354789704017
 20
-85.47824747217723
 10
129.4124097198277
 20
-85.58133755069548
 10
129.3792426902953
 20
-85.60764343569619
 10
129.3735606482358
 20
-85.56000125777786
 10
129.3539167078664
 20
-85.5227509869902
 10
129.3350042005242
 20
-85.46448046966525
 10
129.3197802387326
 20
-85.42070233806287
 10
129.2732198892554
 20
-85.30696013767776
 10
129.614584983207
 20
-85.33879133694046
 10
129.8934601887004
 20
-85.37293999707603
 10
129.8872705554526
 20
-85.22541458334439
 10
129.8885887972392
 20
-85.15442283905256
 10
129.8879784209567
 20
-85.04735666855427
 10
129.8880824090344
 20
-84.9205690502809
 10
129.8884940483674
 20
-84.78606191318039
 10
129.8868860361588
 20
-84.66059884862906
 10
129.8914855087544
 20
-84.54950188094972
 10
129.8819139021829
 20
-84.48693548013404
 10
129.895895430331
 20
-84.42860046519088
 10
129.8402336906324
 20
-84.4416572423185
 10
129.783060771744
 20
-84.43319127064586
 10
129.6871001445267
 20
-84.43725458733456
 10
129.5888720042441
 20
-84.43484544961615
 10
129.492753497718
 20
-84.439038342007
 10
129.4359601045431
 20
-84.43026088372929
 10
129.3805309393004
 20
-84.44360497963966
 10
129.3925631947537
 20
-84.39418523854836
 10
129.3846955693557
 20
-84.35061446783692
 10
129.3921248083449
 20
-84.30624965695563
 10
129.3806883083763
 20
-84.25553137050098
 10
129.4487054889753
 20
-84.27292974056346
 10
129.5223449399366
 20
-84.260379845769
 10
129.6580016577831
 20
-84.26655757802996
 10
129.8139861544145
 20
-84.26426231721005
 10
129.9870878877763
 20
-84.26514466551559
 10
130.1601895483801
 20
-84.2642622767168
 10
130.3161742330836
 20
-84.2665577185854
 10
130.4518304409416
 20
-84.26037948551655
 10
130.5254709225272
 20
-84.27293040595757
 10
130.5934866694344
 20
-84.25553061801948
 10
130.5820543405541
 20
-84.30625304399534
 10
130.5894491977918
 20
-84.35058374002983
 10
130.581699243189
 20
-84.39427127263895
 10
130.5936156261497
 20
-84.44391844715614
 10
130.5363122743236
 20
-84.42994023475663
 10
130.4775098309392
 20
-84.43915679140832
 10
130.3780246152819
 20
-84.43503166649162
 10
130.2749232617969
 20
-84.43632674788206
 10
130.1792798874192
 20
-84.43601357736443
 10
130.1112420491236
 20
-84.43606658116947
 10
130.0769414733062
 20
-84.43606382942434
 10
130.0673574910183
 20
-84.43606306340826
 97
        1
330
AC
 75
     1
 76
     2
 52
45.0
 41
0.1
 77
     0
 78
     1
 53
45.0
 43
0.0
 44
0.0
 45
-0.282842712474619
 46
0.0
 79
     0
 98
        1
 10
0.0
 20
0.0
  0
HATCH
  5
CA
330
48
100
AcDbEntity
  8
1
  6
Continuous
 62
     2
100
AcDbHatch
 10
0.0
 20
0.0
 30
0.0
210
0.0
220
0.0
230
1.0
  2
CUSTOM8
 70
     0
 71
     1
 91
        1
 92
        1
 93
        1
 72
     4
 94
        3
 73
     0
 74
     0
 95
       91
 96
       87
 40
0.0
 40
0.0
 40
0.0
 40
0.0
 40
0.0345987051695434
 40
0.1258134969461369
 40
0.2547723404888987
 40
0.4026032099154125
 40
0.5504340793416704
 40
0.679392922883608
 40
0.770607714657132
 40
0.8052064287780925
 40
1.124852390615288
 40
1.427402236308868
 40
1.706356627453517
 40
1.95554141787522
 40
2.16948593856636
 40
2.344350786664801
 40
2.480568411561947
 40
2.590440557428944
 40
2.649189927151123
 40
2.749320643306325
 40
2.91263273988002
 40
3.147745656000227
 40
3.244827496385104
 40
3.338490056946742
 40
3.583815413207176
 40
3.761423943238535
 40
3.886956104362693
 40
3.985855451886883
 40
4.091766255337681
 40
4.250186473811928
 40
4.422734315084567
 40
4.62828568483869
 40
4.872093227758525
 40
5.15254965214562
 40
5.464967135837624
 40
5.803201477852525
 40
6.160362988814001
 40
6.193449448276056
 40
6.284170385501739
 40
6.419718138764581
 40
6.587285046385831
 40
6.774063446723773
 40
6.967245678113728
 40
7.154024078817742
 40
7.321590987026128
 40
7.457138740890486
 40
7.547859678556223
 40
7.580946138182783
 40
7.608533084714836
 40
7.669224367077818
 40
7.729915649430027
 40
7.757502595950087
 40
7.790278062553541
 40
7.880146277431039
 40
8.014419963180472
 40
8.180411842397973
 40
8.365434637679414
 40
8.556801071622715
 40
8.7418238668308
 40
8.907815745916338
 40
9.042089431507463
 40
9.131957646249589
 40
9.164733112797165
 40
9.415425063140086
 40
9.667986180958563
 40
9.694169807462702
 40
9.756607686047605
 40
9.83113031532244
 40
9.89356819389985
 40
9.919751820398664
 40
9.950967964690498
 40
9.996421631210607
 40
10.22087981037449
 40
10.44341866197538
 40
10.47847970788851
 40
10.57091337438749
 40
10.70159545461226
 40
10.85140174170354
 40
11.00120802880474
 40
11.13189010907379
 40
11.22432377583001
 40
11.2593848093895
 40
11.28697175596139
 40
11.34766303835913
 40
11.40835432042064
 40
11.43594125892098
 40
11.43594125892098
 40
11.43594125892098
 40
11.43594125892098
 10
131.7073066852908
 20
-83.84212639689012
 10
131.695773836456
 20
-83.84212644526174
 10
131.6538361964618
 20
-83.84212661109923
 10
131.5689082238644
 20
-83.84212309013182
 10
131.4462641072748
 20
-83.8421450837821
 10
131.3046159436612
 20
-83.84204633637033
 10
131.1634706218109
 20
-83.8424074858167
 10
131.0396303837523
 20
-83.84133551205001
 10
130.9572170345
 20
-83.84363185722822
 10
130.7982743749311
 20
-83.83406865440669
 10
130.9758354872994
 20
-84.19670040502719
 10
130.9634691725072
 20
-84.44212307090973
 10
131.0319471993484
 20
-84.72592933489254
 10
131.0947976840589
 20
-84.96204434875052
 10
131.1707205951349
 20
-85.16128694417961
 10
131.2558142096635
 20
-85.31710087362717
 10
131.3499560112555
 20
-85.41797577032696
 10
131.4537600727347
 20
-85.46989582175124
 10
131.5380824550393
 20
-85.41848950434472
 10
131.5606274699071
 20
-85.30310890776573
 10
131.600068349499
 20
-85.17570285111708
 10
131.5457872254562
 20
-84.85833106727335
 10
131.6706170592092
 20
-85.00473254673184
 10
131.8274244033223
 20
-85.03660134482917
 10
131.7202672526676
 20
-85.27034077046461
 10
131.7063663729487
 20
-85.43482658230434
 10
131.6489661986845
 20
-85.56324565691608
 10
131.5589972664628
 20
-85.63436632461261
 10
131.4350227177497
 20
-85.65023110671835
 10
131.2889225716479
 20
-85.6146163725992
 10
131.1498846839903
 20
-85.4945486431381
 10
131.0356956481763
 20
-85.32019752263776
 10
130.9401093821104
 20
-85.09508831702844
 10
130.8573605092246
 20
-84.8306718880765
 10
130.8062131776031
 20
-84.51267501715543
 10
130.7025141726957
 20
-84.23911706325177
 10
130.8297793728141
 20
-83.83449616201216
 10
130.6612843142638
 20
-83.84343066964414
 10
130.5766948306698
 20
-83.84139473395726
 10
130.4444828907247
 20
-83.8424149742568
 10
130.2815457613723
 20
-83.8420220449566
 10
130.0988711690153
 20
-83.8421973850072
 10
129.9102009893002
 20
-83.84195329506623
 10
129.7269421539809
 20
-83.84269776907855
 10
129.5659699352337
 20
-83.84039074291661
 10
129.4284760854895
 20
-83.8465562993043
 10
129.354454289193
 20
-83.83422596355878
 10
129.2868167706476
 20
-83.85126111090536
 10
129.298732623889
 20
-83.79930996366562
 10
129.2910629805313
 20
-83.75384009847562
 10
129.2987544744735
 20
-83.70840981110385
 10
129.2868094317381
 20
-83.65653038829521
 10
129.3538540825487
 20
-83.67336291323828
 10
129.4272328185295
 20
-83.66120025721418
 10
129.5634080824892
 20
-83.66728203739132
 10
129.7228764321131
 20
-83.66500600499035
 10
129.9044125605456
 20
-83.6657420081513
 10
130.0912987381798
 20
-83.66549480617954
 10
130.2722964836455
 20
-83.66569034014836
 10
130.4335755098497
 20
-83.66523200099252
 10
130.5648834644506
 20
-83.66642761062884
 10
130.6480003842215
 20
-83.66404087494351
 10
130.7811189067433
 20
-83.67224829088627
 10
130.6900846022278
 20
-83.41702565861432
 10
130.6044585594039
 20
-83.15291076485852
 10
130.7245541523075
 20
-83.16550991844922
 10
130.7769217468163
 20
-83.16761199051017
 10
130.8469450089335
 20
-83.1692003492443
 10
130.8926874857436
 20
-83.17852867275978
 10
130.9475765166552
 20
-83.16909467898662
 10
130.92185273053
 20
-83.21722406158915
 10
130.8080350091072
 20
-83.21188605069925
 10
130.9414299140755
 20
-83.44006260237313
 10
130.819861125509
 20
-83.67298578218167
 10
130.9478141289032
 20
-83.66368175929652
 10
131.0304000926079
 20
-83.6665443305941
 10
131.1562167370443
 20
-83.66531997401786
 10
131.2996422357677
 20
-83.66523002925126
 10
131.4412373471347
 20
-83.66709271630238
 10
131.5714079769586
 20
-83.66122358876925
 10
131.644840480581
 20
-83.6738509399089
 10
131.7146065441715
 20
-83.65577871703675
 10
131.7030725125015
 20
-83.70842584267764
 10
131.7088136866301
 20
-83.75234117127545
 10
131.7071568290529
 20
-83.80365452137538
 10
131.7072710081289
 20
-83.83296642792457
 10
131.7073066852908
 20
-83.84212639689012
 97
        1
330
AD
 75
     1
 76
     2
 52
45.0
 41
0.1
 77
     0
 78
     1
 53
45.0
 43
0.0
 44
0.0
 45
-0.282842712474619
 46
0.0
 79
     0
 98
        1
 10
0.0
 20
0.0
  0
HATCH
  5
CB
330
48
100
AcDbEntity
  8
1
  6
Continuous
 62
     2
100
AcDbHatch
 10
0.0
 20
0.0
 30
0.0
210
0.0
220
0.0
230
1.0
  2
CUSTOM9
 70
     0
 71
     1
 91
        1
 92
        1
 93
        1
 72
     4
 94
        3
 73
     0
 74
     0
 95
      118
 96
      114
 40
0.0
 40
0.0
 40
0.0
 40
0.0
 40
0.1054708162973211
 40
0.2466098270052022
 40
0.3965912874591108
 40
0.5285525069753665
 40
0.61562450556421
 40
0.643143410579737
 40
0.7036850037985668
 40
0.7642265984503671
 40
0.7917455052354061
 40
0.9287404319989472
 40
1.106572819088005
 40
1.287544879681004
 40
1.31757830803053
 40
1.399928030857164
 40
1.522968204799919
 40
1.675072986590574
 40
1.844616533180637
 40
2.0199730016387
 40
2.189516548880018
 40
2.34162133158534
 40
2.464661506320478
 40
2.547011229647051
 40
2.577044658168016
 40
2.603797890893044
 40
2.662655002908731
 40
2.721512114949529
 40
2.748265347702666
 40
2.774215307344729
 40
2.845959313407075
 40
2.954338556588279
 40
3.090194227585453
 40
3.244367517100425
 40
3.407699615844176
 40
3.571031714539341
 40
3.725205003920006
 40
3.861060674729511
 40
3.969439917716197
 40
4.041183923628875
 40
4.067133883212872
 40
4.311886746012064
 40
4.547897258335458
 40
4.764747083043911
 40
4.952749679951704
 40
5.045772974195796
 40
5.137862019644923
 40
5.330543169792993
 40
5.553448265243967
 40
5.795083855888128
 40
6.043293412177206
 40
6.285761695541178
 40
6.313902908752705
 40
6.384255941793294
 40
6.475714884766911
 40
6.567173827758988
 40
6.63752686083978
 40
6.665668074074129
 40
6.692018920328091
 40
6.749990782071161
 40
6.807962643790527
 40
6.834313490018014
 40
6.856393084245279
 40
6.913335195649959
 40
6.991194817302637
 40
7.076026942283913
 40
7.15388656372546
 40
7.210828674845
 40
7.232908268931364
 40
7.258199334923883
 40
7.32487578159252
 40
7.419142481925202
 40
7.527204308842125
 40
7.635266135230718
 40
7.729532834168704
 40
7.796209279293019
 40
7.821500344594962
 40
7.844652988851089
 40
7.899863140541783
 40
7.965759128053935
 40
8.02096927977119
 40
8.044121924046642
 40
8.069356610160701
 40
8.109134395441503
 40
8.132238100191218
 40
8.19314786778658
 40
8.279261678876752
 40
8.377977512673953
 40
8.476693347146751
 40
8.56280716041181
 40
8.62371693082659
 40
8.646820636853535
 40
8.671988793774377
 40
8.734909185828245
 40
8.816705695188945
 40
8.898502204815516
 40
8.961422597377963
 40
8.986590754551104
 40
9.012941600733273
 40
9.070913462380334
 40
9.128885324081851
 40
9.155236170325155
 40
9.18040432792917
 40
9.243324721948243
 40
9.325121234212036
 40
9.40691774663769
 40
9.469838141978146
 40
9.495006288270934
 40
9.517811184379076
 40
9.57219209048707
 40
9.637098333281306
 40
9.691479239515507
 40
9.71428412564355
 40
9.71428412564355
 40
9.71428412564355
 40
9.71428412564355
 10
126.9129421548272
 20
-84.1256627162637
 10
126.9345943088657
 20
-84.15343565571278
 10
126.9852209629092
 20
-84.21837380252855
 10
127.0604335722211
 20
-84.32564374501189
 10
127.1503434793965
 20
-84.44077996547463
 10
127.1964122196291
 20
-84.54098389065774
 10
127.2910777814274
 20
-84.61021427999145
 10
127.2459391840031
 20
-84.65683795135814
 10
127.2202000305409
 20
-84.6979512594805
 10
127.1900149227632
 20
-84.73389463086149
 10
127.1448637250182
 20
-84.80875652218
 10
127.0965456978181
 20
-84.58672910560485
 10
127.0223492232692
 20
-84.54944757476378
 10
126.9090999844225
 20
-84.2784523268349
 10
126.9140086097788
 20
-84.3936010636786
 10
126.9123439075925
 20
-84.46618759032467
 10
126.9131782596333
 20
-84.58829846330103
 10
126.9128562059883
 20
-84.73541634003631
 10
126.9130029432075
 20
-84.90148370857534
 10
126.9127902612341
 20
-85.0726788020549
 10
126.9134449771652
 20
-85.2390260617859
 10
126.9114144980758
 20
-85.38520261758399
 10
126.9168412919549
 20
-85.50984387339474
 10
126.9059883388327
 20
-85.57736778273464
 10
126.9211691675174
 20
-85.63906373397069
 10
126.8712847627753
 20
-85.62727930917089
 10
126.8272102862141
 20
-85.6351161203412
 10
126.783732414982
 20
-85.62694993441386
 10
126.7347299306108
 20
-85.63917378075624
 10
126.7473683754445
 20
-85.58494767564777
 10
126.7385135488069
 20
-85.52518515906534
 10
126.7430011289933
 20
-85.41533405769718
 10
126.7412912655611
 20
-85.28425459408415
 10
126.7418503435606
 20
-85.13257423369762
 10
126.7416881288314
 20
-84.97244359884137
 10
126.7417222444294
 20
-84.81218569139521
 10
126.7417467479746
 20
-84.6608518729365
 10
126.7416406062845
 20
-84.52873278475488
 10
126.7419251661551
 20
-84.42160632280897
 10
126.7413628067187
 20
-84.35646815234614
 10
126.7435717603309
 20
-84.22836476955418
 10
126.6574388518221
 20
-84.60357824422512
 10
126.5810093338119
 20
-84.75537241690697
 10
126.4914993287452
 20
-84.91689228367778
 10
126.3895365736945
 20
-85.18983585993918
 10
126.3442929010658
 20
-85.02738088217576
 10
126.2357308461288
 20
-84.93850002755971
 10
126.4250744271372
 20
-84.78905639852682
 10
126.4820293065319
 20
-84.59706297839162
 10
126.5972473512971
 20
-84.36555811907334
 10
126.6195104149753
 20
-84.17658175055027
 10
126.8026857671759
 20
-83.90001345488162
 10
126.6792986117172
 20
-83.90756455981995
 10
126.6180636686453
 20
-83.90598662447974
 10
126.5336952136683
 20
-83.90572842240412
 10
126.4459187605585
 20
-83.90910589062885
 10
126.3911721215742
 20
-83.9006061983207
 10
126.3359655545644
 20
-83.914068737643
 10
126.3477775555155
 20
-83.86523992687326
 10
126.3397448671412
 20
-83.82186429917382
 10
126.3483138624297
 20
-83.77945996504513
 10
126.3357895928775
 20
-83.73187638261972
 10
126.3810054058354
 20
-83.7418822181898
 10
126.4269768082343
 20
-83.73561329640027
 10
126.503217456733
 20
-83.73861873408217
 10
126.5816248651613
 20
-83.73684986535544
 10
126.6578945168553
 20
-83.73990640832432
 10
126.7037961979094
 20
-83.73351463437912
 10
126.748668648502
 20
-83.74361611835194
 10
126.7360504795253
 20
-83.69298233232192
 10
126.7446889102326
 20
-83.6395417293202
 10
126.7407314115062
 20
-83.54592179682409
 10
126.7417277587954
 20
-83.44342828125168
 10
126.7426879932694
 20
-83.34102164565925
 10
126.7388163977624
 20
-83.24719505204766
 10
126.7472742333985
 20
-83.19418891973737
 10
126.7348028452455
 20
-83.14243999162898
 10
126.779705890947
 20
-83.15604687587333
 10
126.8210036356391
 20
-83.15354954493502
 10
126.885029680067
 20
-83.15807374239606
 10
126.9241063668404
 20
-83.16674431770775
 10
126.9731496018361
 20
-83.15940332743406
 10
126.9480032550209
 20
-83.19852538762329
 10
126.9070853853343
 20
-83.18891592358281
 10
126.9165062136223
 20
-83.2391528664431
 10
126.9110599838365
 20
-83.290694891746
 10
126.9136652121423
 20
-83.37495727229569
 10
126.9125054721773
 20
-83.46896299230681
 10
126.913854358385
 20
-83.56258569418563
 10
126.9104922621128
 20
-83.64775917261866
 10
126.9175912437388
 20
-83.69738578742047
 10
126.9067521674164
 20
-83.74461739844098
 10
126.9558962744864
 20
-83.73253759877238
 10
127.0049830149766
 20
-83.74008041451079
 10
127.082866680026
 20
-83.73769364452657
 10
127.1605317692515
 20
-83.73556052908674
 10
127.2100346450973
 20
-83.74262042891635
 10
127.2599547270258
 20
-83.73095282877874
 10
127.24781510365
 20
-83.77915199442697
 10
127.2560790748763
 20
-83.82206215012856
 10
127.2478151170402
 20
-83.86497232962705
 10
127.2599547069473
 20
-83.91317146059224
 10
127.2100347678365
 20
-83.90150400342577
 10
127.1605303170822
 20
-83.90856232379045
 10
127.0828736902592
 20
-83.90643769585483
 10
127.0049596385379
 20
-83.90402045448332
 10
126.9559452872335
 20
-83.91163586619602
 10
126.9068198628562
 20
-83.89947482256497
 10
126.917051250819
 20
-83.9438242138993
 10
126.9111630197672
 20
-83.98529998611178
 10
126.9133740825188
 20
-84.04540040498787
 10
126.9129061865765
 20
-84.092296520512
 10
126.9129339512532
 20
-84.11805288395894
 10
126.9129421548272
 20
-84.1256627162637
 97
        1
330
AE
 75
     1
 76
     2
 52
45.0
 41
0.1
 77
     0
 78
     1
 53
45.0
 43
0.0
 44
0.0
 45
-0.282842712474619
 46
0.0
 79
     0
 98
        1
 10
0.0
 20
0.0
  0
HATCH
  5
CC
330
48
100
AcDbEntity
  8
1
  6
Continuous
 62
     2
100
AcDbHatch
 10
0.0
 20
0.0
 30
0.0
210
0.0
220
0.0
230
1.0
  2
CUSTOM10
 70
     0
 71
     1
 91
        1
 92
        1
 93
        1
 72
     4
 94
        3
 73
     0
 74
     0
 95
       47
 96
       43
 40
0.0
 40
0.0
 40
0.0
 40
0.0
 40
0.2207912809957237
 40
0.4459404186302952
 40
0.4902387190458339
 40
0.5327473892722138
 40
0.5742260451224597
 40
0.6155432630559469
 40
0.6568164066314671
 40
0.6982511618779592
 40
0.7407663929316138
 40
0.7851366743174167
 40
1.010288833836222
 40
1.231080507002062
 40
1.451765243652284
 40
1.676638205891575
 40
1.720461045359553
 40
1.830018144043404
 40
1.97244237235304
 40
2.114866600677399
 40
2.224423699395029
 40
2.268246538883272
 40
2.49362880120711
 40
2.715602830286513
 40
2.934211330706261
 40
3.14950236985526
 40
3.231387784850877
 40
3.31823187385397
 40
3.405143198197929
 40
3.486970301720267
 40
3.702258172493692
 40
3.920866283533923
 40
4.142839325931718
 40
4.368221903865185
 40
4.412044743359652
 40
4.521601842095671
 40
4.66402607045216
 40
4.806450298808863
 40
4.916007397546559
 40
4.959830237042874
 40
5.184703515846913
 40
5.405387250767294
 40
5.405387250767294
 40
5.405387250767294
 40
5.405387250767294
 10
124.2762379778264
 20
-83.66048993860217
 10
124.2823091939621
 20
-83.59696952312878
 10
124.2945714626862
 20
-83.46867496124469
 10
124.1859659399031
 20
-83.19289214640006
 10
124.3016938416224
 20
-83.22267301382041
 10
124.3426795028635
 20
-83.22689878551266
 10
124.3846158317137
 20
-83.23144988424482
 10
124.4259149145329
 20
-83.23253451884605
 10
124.4671984635175
 20
-83.23145096618863
 10
124.5091100790266
 20
-83.22689322102748
 10
124.5500936068638
 20
-83.22268004604358
 10
124.6659875363107
 20
-83.19277823496563
 10
124.5550605247075
 20
-83.47115628204196
 10
124.5829808884886
 20
-83.65172293989139
 10
124.5659219866587
 20
-83.88494392467615
 10
124.5669589801723
 20
-84.04548812270947
 10
124.5669051919023
 20
-84.17170617255366
 10
124.56692298921
 20
-84.27026471477852
 10
124.5669141100699
 20
-84.40174732371122
 10
124.5669216447652
 20
-84.5332258984544
 10
124.5669081924748
 20
-84.6317921212
 10
124.5669484237111
 20
-84.75815699189937
 10
124.5661698923436
 20
-84.9197336599122
 10
124.5820910838885
 20
-85.15093612921174
 10
124.5588421405026
 20
-85.33581082842089
 10
124.6615135963985
 20
-85.60519832044032
 10
124.5075190882455
 20
-85.56795322128272
 10
124.4259082322451
 20
-85.57317440133555
 10
124.3443144812202
 20
-85.56794814435736
 10
124.1903466186463
 20
-85.60518364928703
 10
124.2929135941536
 20
-85.33580304951208
 10
124.2696997835707
 20
-85.15093849488676
 10
124.2855397174757
 20
-84.91973216248452
 10
124.2848248833047
 20
-84.75815722505587
 10
124.2848617089525
 20
-84.6317920360357
 10
124.284850151989
 20
-84.53322678178111
 10
124.2848527538833
 20
-84.4017430739687
 10
124.2848601051398
 20
-84.2702788678289
 10
124.284839506097
 20
-84.17167648538764
 10
124.2849034711647
 20
-84.04559285459665
 10
124.2836686467209
 20
-83.88245343430316
 10
124.2786992916364
 20
-83.73401251036542
 10
124.2762379778264
 20
-83.66048993860217
 97
        1
330
AF
 75
     1
 76
     2
 52
45.0
 41
0.1
 77
     0
 78
     1
 53
45.0
 43
0.0
 44
0.0
 45
-0.282842712474619
 46
0.0
 79
     0
 98
        1
 10
0.0
 20
0.0
  0
HATCH
  5
CD
330
48
100
AcDbEntity
  8
1
  6
Continuous
 62
     2
100
AcDbHatch
 10
0.0
 20
0.0
 30
0.0
210
0.0
220
0.0
230
1.0
  2
CUSTOM11
 70
     0
 71
     1
 91
        1
 92
        1
 93
        1
 72
     4
 94
        3
 73
     0
 74
     0
 95
      110
 96
      106
 40
0.0
 40
0.0
 40
0.0
 40
0.0
 40
0.2203406257277826
 40
0.4407808782838122
 40
0.5952494494614958
 40
0.7488431659393106
 40
0.9023581831309372
 40
1.056801968670422
 40
1.210736449099922
 40
1.363041386539886
 40
1.515315729683172
 40
1.669377239148066
 40
1.721611652756566
 40
1.773199502942947
 40
1.824933793209976
 40
1.877110426487965
 40
1.982682281206714
 40
2.078781667087522
 40
2.172809640822287
 40
2.271937807378913
 40
2.378349933379292
 40
2.494131557736494
 40
2.626681683943586
 40
2.783145050795957
 40
2.890701232940823
 40
2.993130312454725
 40
3.099869730691699
 40
3.220237816691191
 40
3.35269548273748
 40
3.481732806389735
 40
3.593499473690257
 40
3.674323013331779
 40
3.817951711952715
 40
3.946167120793727
 40
4.061405053453454
 40
4.166480796003065
 40
4.262478775059188
 40
4.350736673551173
 40
4.433071991254002
 40
4.511216293814547
 40
4.564262454117859
 40
4.618474415571484
 40
4.67012848875407
 40
4.722296879126271
 40
4.819540945314156
 40
4.931194984127983
 40
5.049996040257653
 40
5.168643755415185
 40
5.283970811762439
 40
5.392260784910222
 40
5.486512254876269
 40
5.55917823394971
 40
5.591425852853379
 40
5.62621596963777
 40
5.667155838674301
 40
5.717449290214122
 40
5.738402360944721
 40
5.784499116553707
 40
5.830595872164682
 40
5.851548942897526
 40
5.873019280661626
 40
5.92421777840818
 40
5.985325662817561
 40
6.036524160567569
 40
6.057994498334099
 40
6.236847789607359
 40
6.381409928945532
 40
6.493190424178541
 40
6.574067534230379
 40
6.691018086205417
 40
6.814881554220391
 40
6.944307823240287
 40
7.071266716065882
 40
7.193488604461685
 40
7.30904277312794
 40
7.414007203170607
 40
7.505140441886418
 40
7.531150360599583
 40
7.559221645322165
 40
7.587202218920829
 40
7.612569159499023
 40
7.66255080948091
 40
7.702878875764054
 40
7.857328205230869
 40
8.010799568088485
 40
8.165256399657492
 40
8.322232698713902
 40
8.479564855016518
 40
8.635216230290807
 40
8.790882550925682
 40
8.948305154947276
 40
9.168271839032963
 40
9.387358980987239
 40
9.608047961033485
 40
9.832914234792693
 40
9.85833869496302
 40
9.925366817230024
 40
10.02013071422762
 40
10.12876249859
 40
10.2373942829525
 40
10.33215817995193
 40
10.39918630222396
 40
10.42461076239784
 40
10.64992019336944
 40
10.87188524531189
 40
10.87188524531189
 40
10.87188524531189
 40
10.87188524531189
 10
121.5312740896237
 20
-83.655321744159
 10
121.534781745316
 20
-83.58838972740286
 10
121.5417986507282
 20
-83.45449542898231
 10
121.4452980118691
 20
-83.1690687984262
 10
121.6765087245727
 20
-83.23171048623809
 10
121.8174242576775
 20
-83.22453880758097
 10
121.9745370277207
 20
-83.23219551735846
 10
122.1280865946907
 20
-83.23202682531048
 10
122.28000574547
 20
-83.23273394278655
 10
122.4397167332851
 20
-83.2224527646245
 10
122.5663925120737
 20
-83.23958923733336
 10
122.7625773641699
 20
-83.16728174706947
 10
122.7289347798697
 20
-83.26814735733973
 10
122.7306963836802
 20
-83.31836180866419
 10
122.7282294593078
 20
-83.36743099227621
 10
122.760202948563
 20
-83.45391943967093
 10
122.6265352422875
 20
-83.40457996205753
 10
122.5427161207676
 20
-83.41024800499923
 10
122.4428813658943
 20
-83.3998991810779
 10
122.3441529239765
 20
-83.39368984403002
 10
122.2376485290729
 20
-83.38757670997309
 10
122.1165464217679
 20
-83.37866551329506
 10
121.9958334022072
 20
-83.389338289017
 10
121.8067506363057
 20
-83.32986931733726
 10
121.838398102493
 20
-83.4889711473655
 10
121.8250515836453
 20
-83.58616306474184
 10
121.8229910946068
 20
-83.69821369703988
 10
121.821314056429
 20
-83.81755749184738
 10
121.8228289313851
 20
-83.94422842658975
 10
121.8211534998289
 20
-84.0715384679797
 10
121.8313796791277
 20
-84.17003868409628
 10
121.8033959116201
 20
-84.31066732188458
 10
121.9762982518924
 20
-84.25465883679995
 10
122.089997272239
 20
-84.26735483335591
 10
122.2095104191858
 20
-84.26007057762834
 10
122.3143443944691
 20
-84.25577417757334
 10
122.4098037418231
 20
-84.25124866555113
 10
122.5018776026652
 20
-84.24306233667892
 10
122.5731504302059
 20
-84.24811584175976
 10
122.6799884225304
 20
-84.20919009782418
 10
122.6481556117655
 20
-84.2893831280821
 10
122.6521117023548
 20
-84.33892497968054
 10
122.6489454911632
 20
-84.38897956774271
 10
122.6805744010204
 20
-84.47326587202068
 10
122.5465086197311
 20
-84.42030069318932
 10
122.4547275312819
 20
-84.42915353923647
 10
122.3334681709222
 20
-84.41885384848936
 10
122.2169065639391
 20
-84.41706523046588
 10
122.1038328265497
 20
-84.41668417704398
 10
121.993419882809
 20
-84.4103998534191
 10
121.9153076587459
 20
-84.42266301558726
 10
121.8168578353263
 20
-84.39001547197964
 10
121.8267307693179
 20
-84.44685686759883
 10
121.8228875764022
 20
-84.48063304256105
 10
121.8221742403886
 20
-84.52335830104678
 10
121.8218322162594
 20
-84.56053827551935
 10
121.8218786774965
 20
-84.59968197443321
 10
121.8218601949545
 20
-84.63738585316403
 10
121.8218655951426
 20
-84.67510479581688
 10
121.821864973382
 20
-84.7046111006894
 10
121.8218650671164
 20
-84.73581857114786
 10
121.821865680754
 20
-84.78041009906003
 10
121.8218624018955
 20
-84.8349147830524
 10
121.82187121431
 20
-84.8794989461264
 10
121.8218312173036
 20
-84.96337626228355
 10
121.8230976789874
 20
-85.07717914136413
 10
121.8205226637461
 20
-85.22625038880378
 10
121.8319961901338
 20
-85.32858231000183
 10
121.8078458741884
 20
-85.46116530928255
 10
121.9587946466095
 20
-85.41559702542065
 10
122.0683389191175
 20
-85.4302842265174
 10
122.198892299354
 20
-85.42534999689025
 10
122.3245264729133
 20
-85.42197729490731
 10
122.4443683145219
 20
-85.41743937315313
 10
122.5646315131046
 20
-85.40406898632087
 10
122.6477714183134
 20
-85.4138672203149
 10
122.7711032940696
 20
-85.35329220190773
 10
122.7499221723575
 20
-85.40922974680068
 10
122.7490902789736
 20
-85.43516185441743
 10
122.7473916227177
 20
-85.46258178623151
 10
122.7472927408448
 20
-85.49717239607703
 10
122.7458611820949
 20
-85.53405026593322
 10
122.7787756711811
 20
-85.62608593792281
 10
122.5806259507727
 20
-85.5532341883926
 10
122.4555500814511
 20
-85.57629708305485
 10
122.2928023814776
 20
-85.57001412828308
 10
122.138431896962
 20
-85.5719449090416
 10
121.9821622956563
 20
-85.57061672214822
 10
121.8225496984901
 20
-85.57395562326228
 10
121.6795278861856
 20
-85.56189639085848
 10
121.4452097401247
 20
-85.62503432837174
 10
121.5428763270817
 20
-85.33834907347773
 10
121.5261821299677
 20
-85.1446712667143
 10
121.5401249229303
 20
-84.9160719193379
 10
121.5397940366253
 20
-84.76070840859049
 10
121.5398030638883
 20
-84.65489098369962
 10
121.5398008395936
 20
-84.59249650689875
 10
121.5398018071509
 20
-84.5023500956576
 10
121.5398017992881
 20
-84.39834267656651
 10
121.5398006380722
 20
-84.2943330343879
 10
121.5398043491123
 20
-84.20419191125322
 10
121.5397963570671
 20
-84.14178631716874
 10
121.5398286794639
 20
-84.03586598852971
 10
121.5386393307938
 20
-83.87828718269347
 10
121.5337169008875
 20
-83.72927214992025
 10
121.5312740896237
 20
-83.655321744159
 97
        1
330
B0
 75
     1
 76
     2
 52
45.0
 41
0.1
 77
     0
 78
     1
 53
45.0
 43
0.0
 44
0.0
 45
-0.282842712474619
 46
0.0
 79
     0
 98
        1
 10
0.0
 20
0.0
  0
HATCH
  5
CE
330
48
100
AcDbEntity
  8
1
  6
Continuous
 62
     2
100
AcDbHatch
 10
0.0
 20
0.0
 30
0.0
210
0.0
220
0.0
230
1.0
  2
CUSTOM12
 70
     0
 71
     1
 91
        1
 92
        1
 93
        1
 72
     4
 94
        3
 73
     0
 74
     0
 95
       95
 96
       91
 40
0.0
 40
0.0
 40
0.0
 40
0.0
 40
0.6550406656911618
 40
1.308087289031943
 40
1.420803739835806
 40
1.566130759770799
 40
1.757067341888464
 40
2.006513545026467
 40
2.087328263121551
 40
2.18532887229562
 40
2.294612454748388
 40
2.408936380534816
 40
2.52680276779857
 40
2.646360524615611
 40
2.762535723971598
 40
2.870057342870169
 40
2.966883448431657
 40
3.050803243518303
 40
3.115818222436611
 40
3.156030057150244
 40
3.213914225080173
 40
3.276689026450559
 40
3.342960320981293
 40
3.404230667150487
 40
3.453822809493281
 40
3.532499827188334
 40
3.634775188507099
 40
3.754909333008073
 40
3.889736761660574
 40
4.035769602175128
 40
4.18725668119751
 40
4.33873368567586
 40
4.488478734676025
 40
4.634708317831495
 40
4.771493189921187
 40
4.892686571561122
 40
5.199775528944349
 40
5.460353566929559
 40
5.667603142345421
 40
5.814722905404391
 40
5.828990806219732
 40
5.855488336304386
 40
5.869756237118718
 40
6.189796507762738
 40
6.531890469872986
 40
6.883053637016927
 40
7.230512024911447
 40
7.566966656764477
 40
7.885203559707368
 40
8.172887439719164
 40
8.41801159406265
 40
8.443926721190566
 40
8.510760470613066
 40
8.602145393795569
 40
8.701714041646996
 40
8.793098965075247
 40
8.85993271505781
 40
8.885847842603456
 40
9.242301256612677
 40
9.589275455016635
 40
9.921808543164037
 40
10.23479624298454
 40
10.29968150889167
 40
10.35323493887762
 40
10.40154625355141
 40
10.46482922477808
 40
10.55973900668387
 40
10.692395459856
 40
10.84920353475655
 40
11.01626328594762
 40
11.18672024367426
 40
11.35372582577192
 40
11.5025744229241
 40
11.61866495023274
 40
11.71329869152858
 40
11.82511050573889
 40
11.94464880845696
 40
12.0692924264249
 40
12.19707290435158
 40
12.32562632860512
 40
12.45034565331261
 40
12.5664659517031
 40
12.67099007414616
 40
12.76077625936764
 40
12.82703233506677
 40
12.87429132785975
 40
12.89831990323315
 40
12.92234847860002
 40
13.53984767410304
 40
14.18294284359347
 40
14.18294284359347
 40
14.18294284359347
 40
14.18294284359347
 10
118.932288816764
 20
-84.68557396612366
 10
118.8006972278169
 20
-84.57190376210859
 10
118.5379146322347
 20
-84.34490938497933
 10
118.025234596064
 20
-83.50240971857801
 10
118.0361607114981
 20
-83.86032057237071
 10
118.0296179047612
 20
-84.00188042541957
 10
118.028297915139
 20
-84.20034129514806
 10
118.0273070122157
 20
-84.3730513876811
 10
118.0279054271593
 20
-84.51590061556509
 10
118.0293946821502
 20
-84.6119042940073
 10
118.0310636108091
 20
-84.7190993155095
 10
118.0326887474239
 20
-84.83291223296507
 10
118.0347382021304
 20
-84.95013862209501
 10
118.0378118021545
 20
-85.06799023581121
 10
118.0411292216662
 20
-85.1822734749347
 10
118.04485578599
 20
-85.28934032946815
 10
118.0472290681043
 20
-85.38448026047168
 10
118.0533671407976
 20
-85.46896877608398
 10
118.0494737015565
 20
-85.52532347515947
 10
118.0710182962697
 20
-85.59630412341734
 10
117.9935892578237
 20
-85.5655275720961
 10
117.937130575981
 20
-85.57444192296478
 10
117.8795448416426
 20
-85.56559216415809
 10
117.7945115998093
 20
-85.59717209588146
 10
117.8264666666001
 20
-85.51360278821898
 10
117.8245657802158
 20
-85.44572825845782
 10
117.8362912566919
 20
-85.34222178049669
 10
117.8419193572618
 20
-85.22453309197392
 10
117.8492854698561
 20
-85.09066825649667
 10
117.8575712221229
 20
-84.94691281941456
 10
117.8653804417046
 20
-84.79741411970645
 10
117.8712523742276
 20
-84.64662885412012
 10
117.8758620337588
 20
-84.49755490935652
 10
117.8797584637161
 20
-84.35332521651065
 10
117.8825667646184
 20
-84.21871529601074
 10
117.8831651274641
 20
-84.02985820466735
 10
117.8870976386769
 20
-83.80479940500936
 10
117.8697127898117
 20
-83.5308834368838
 10
117.9105369862203
 20
-83.36668322715491
 10
117.825010577562
 20
-83.16705773348994
 10
117.8915511427307
 20
-83.17069976410112
 10
117.9093676792849
 20
-83.17041987653236
 10
118.0311754317123
 20
-83.16822507415468
 10
118.133572285508
 20
-83.44780316092584
 10
118.3834974028976
 20
-83.64892426278082
 10
118.6124987850729
 20
-83.91662819826179
 10
118.8500103732729
 20
-84.16809020951709
 10
119.0741043260391
 20
-84.40485460752735
 10
119.300566880263
 20
-84.6623674223101
 10
119.4580640406131
 20
-84.7780609975716
 10
119.6727082132296
 20
-85.11458282275305
 10
119.6677598494236
 20
-84.98990680722481
 10
119.6688884122166
 20
-84.93127742878357
 10
119.6683830361134
 20
-84.84411772442111
 10
119.6685427677732
 20
-84.75039291631217
 10
119.6685007410937
 20
-84.66436463517053
 10
119.6685154559992
 20
-84.60301542868595
 10
119.6684658775603
 20
-84.45320203293097
 10
119.6713764042428
 20
-84.2146582230398
 10
119.6514473560782
 20
-83.8496892494539
 10
119.7005386455867
 20
-83.58655802820675
 10
119.54329040288
 20
-83.17526529866339
 10
119.7017065392041
 20
-83.23057152262342
 10
119.7566632998248
 20
-83.23255748313916
 10
119.8082840286359
 20
-83.23190656565833
 10
119.8968151484985
 20
-83.1908590707585
 10
119.8459850822788
 20
-83.33759108191103
 10
119.8568342449902
 20
-83.44435462859654
 10
119.8420989514466
 20
-83.60369729399979
 10
119.8354928965824
 20
-83.76602373161217
 10
119.8269913919534
 20
-83.93462912921694
 10
119.8198179721817
 20
-84.09640620110548
 10
119.8144015735009
 20
-84.2403310335616
 10
119.8126666487267
 20
-84.36017941347166
 10
119.8130393191938
 20
-84.46769333223574
 10
119.8128608645881
 20
-84.57635410168501
 10
119.8131963382759
 20
-84.69501864648561
 10
119.8144993141803
 20
-84.81900271301348
 10
119.8163839871193
 20
-84.94597140642983
 10
119.8179956974469
 20
-85.07301573263057
 10
119.819635565705
 20
-85.19600550321913
 10
119.821752326537
 20
-85.3115450343033
 10
119.8218800941982
 20
-85.41364530858252
 10
119.8261466916173
 20
-85.50445585975933
 10
119.8163392604908
 20
-85.56241813605301
 10
119.8373427291308
 20
-85.62938304682064
 10
119.7980592259516
 20
-85.62164280847401
 10
119.5850259637366
 20
-85.63700180668924
 10
119.3891250462805
 20
-85.0805237671961
 10
119.0866150151163
 20
-84.8189939946558
 10
118.932288816764
 20
-84.68557396612366
 97
        1
330
B1
 75
     1
 76
     2
 52
45.0
 41
0.1
 77
     0
 78
     1
 53
45.0
 43
0.0
 44
0.0
 45
-0.282842712474619
 46
0.0
 79
     0
 98
        1
 10
0.0
 20
0.0
  0
HATCH
  5
CF
330
48
100
AcDbEntity
  8
1
  6
Continuous
 62
     2
100
AcDbHatch
 10
0.0
 20
0.0
 30
0.0
210
0.0
220
0.0
230
1.0
  2
CUSTOM13
 70
     0
 71
     1
 91
        2
 92
        1
 93
        1
 72
     4
 94
        3
 73
     0
 74
     0
 95
       57
 96
       53
 40
0.0
 40
0.0
 40
0.0
 40
0.0
 40
0.0471632082809087
 40
0.0914861054632151
 40
0.1357762519702102
 40
0.1826527001609687
 40
0.2295203288571595
 40
0.2737751972220476
 40
0.3181310461542779
 40
0.3652607198398522
 40
0.457100728631446
 40
0.5671851029165076
 40
0.6894623283868396
 40
0.8181758272545904
 40
0.9510087229273674
 40
1.085852229674063
 40
1.218126164475316
 40
1.343545131142376
 40
1.454537202956779
 40
1.567187607530703
 40
1.680710966642335
 40
1.794226869736785
 40
1.900009184247485
 40
2.004085860447849
 40
2.108162674451766
 40
2.21400015015531
 40
2.496038577352163
 40
2.762350745479289
 40
2.997275353279403
 40
3.185110082137732
 40
3.24640789006393
 40
3.312607550212704
 40
3.378877742711548
 40
3.44014039965146
 40
4.100501696006532
 40
4.754913085563532
 40
5.41133169342393
 40
6.077890432568728
 40
6.110575292671021
 40
6.143260152775772
 40
6.367989363395164
 40
6.610525374951552
 40
6.863389136467312
 40
7.119380025547636
 40
7.376036605091083
 40
7.631164770966286
 40
7.876722425456415
 40
8.104953735855958
 40
8.312916685924291
 40
8.497730294941277
 40
8.651018984313843
 40
8.764738853624577
 40
8.764738853624577
 40
8.764738853624577
 40
8.764738853624577
 10
116.4177602020132
 20
-85.57828695201162
 10
116.402156924655
 20
-85.5762920373501
 10
116.3718900479921
 20
-85.57242233453792
 10
116.3265946721871
 20
-85.57113449846821
 10
116.2814505648968
 20
-85.5714675126004
 10
116.2353969643019
 20
-85.57140776139867
 10
116.1895448691716
 20
-85.57129621164088
 10
116.1438664167784
 20
-85.571776013575
 10
116.1005764061227
 20
-85.56994325195366
 10
116.0294900471133
 20
-85.59405877999437
 10
116.031242978106
 20
-85.47270740836836
 10
115.9841148890189
 20
-85.3872919506286
 10
115.9446430771381
 20
-85.26968505468955
 10
115.8961588052263
 20
-85.15222682273654
 10
115.8455969922142
 20
-85.03049499052574
 10
115.7973587130096
 20
-84.90379466951626
 10
115.7390185467214
 20
-84.79521747029138
 10
115.723584518688
 20
-84.63834777679682
 10
115.5821538850255
 20
-84.67081988265764
 10
115.4763349934523
 20
-84.65942546131907
 10
115.3613522244842
 20
-84.66062843299477
 10
115.250809477176
 20
-84.65948489466678
 10
115.1431536042402
 20
-84.66037084776568
 10
115.0376275048861
 20
-84.66038832423565
 10
114.9364145201632
 20
-84.66741402341677
 10
114.7521757347372
 20
-84.6431957495422
 10
114.741234620503
 20
-84.94713743692206
 10
114.6342644154368
 20
-85.17102257560691
 10
114.5353101123965
 20
-85.35560120521592
 10
114.5480043043626
 20
-85.59925230009884
 10
114.4305044236016
 20
-85.56947388060892
 10
114.3677008387929
 20
-85.57197345304488
 10
114.3040824613019
 20
-85.57111359711283
 10
114.0200966713693
 20
-85.61357394872154
 10
114.6506591019001
 20
-84.89373482369305
 10
114.734259780869
 20
-84.38178895378357
 10
115.1184205308957
 20
-83.86101691264042
 10
115.1032160808186
 20
-83.1593580856088
 10
115.3494218242316
 20
-83.17109801732833
 10
115.4511298677181
 20
-83.16230430361321
 10
115.4504704555437
 20
-83.41395784083736
 10
115.5683269675447
 20
-83.59637414080134
 10
115.6570467780104
 20
-83.83891694151228
 10
115.7577245004879
 20
-84.07115404283955
 10
115.8566095231861
 20
-84.30780790247181
 10
115.9554629510288
 20
-84.53993695643996
 10
116.0511118910545
 20
-84.763332120253
 10
116.1414857092891
 20
-84.97182885764775
 10
116.2244897087807
 20
-85.16146986284764
 10
116.2981041102418
 20
-85.32792328745994
 10
116.3597768415165
 20
-85.46537735187988
 10
116.4004411405223
 20
-85.54456195384056
 10
116.4177602020132
 20
-85.57828695201162
 97
        1
330
B3
 92
       16
 93
        1
 72
     4
 94
        3
 73
     0
 74
     0
 95
       25
 96
       21
 40
0.0
 40
0.0
 40
0.0
 40
0.0
 40
0.0911479969065106
 40
0.1858117896205802
 40
0.2804128399735346
 40
0.3715889190714654
 40
0.4679080494219137
 40
0.5642683809229375
 40
0.6605683222645278
 40
0.7569653015810398
 40
0.8561348172522874
 40
1.092615965104323
 40
1.374867658141931
 40
1.611348812011623
 40
1.710518328425287
 40
1.809403163726631
 40
2.045205463294132
 40
2.326646917622181
 40
2.562449217190657
 40
2.661334043833964
 40
2.661334043833964
 40
2.661334043833964
 40
2.661334043833964
 10
114.8938653086818
 20
-84.50840896616798
 10
114.9242478437541
 20
-84.50857355099537
 10
114.9861848408731
 20
-84.5089090612417
 10
115.079630947995
 20
-84.51186379362088
 10
115.1730047755977
 20
-84.51477681936942
 10
115.2672713273095
 20
-84.51561233170672
 10
115.3609917310586
 20
-84.51458790156043
 10
115.4606992822824
 20
-84.51538457343118
 10
115.5443902065932
 20
-84.50534024578869
 10
115.6892948834664
 20
-84.53220817139923
 10
115.565108496442
 20
-84.35789904534043
 10
115.52208198059
 20
-84.19803723807996
 10
115.4063874661828
 20
-83.93936976263879
 10
115.3272517950876
 20
-83.80224381952226
 10
115.2686529141435
 20
-83.58518401680011
 10
115.2119756459057
 20
-83.8018930060066
 10
115.1307762420096
 20
-83.94128422375852
 10
115.0318653801108
 20
-84.19048465443899
 10
114.9508577613877
 20
-84.37529604588018
 10
114.9068635845457
 20
-84.47804987957971
 10
114.8938653086818
 20
-84.50840896616798
 97
        1
330
B2
 75
     1
 76
     2
 52
45.0
 41
0.1
 77
     0
 78
     1
 53
45.0
 43
0.0
 44
0.0
 45
-0.282842712474619
 46
0.0
 79
     0
 98
        1
 10
0.0
 20
0.0
  0
HATCH
  5
D0
330
48
100
AcDbEntity
  8
1
  6
Continuous
 62
     2
100
AcDbHatch
 10
0.0
 20
0.0
 30
0.0
210
0.0
220
0.0
230
1.0
  2
CUSTOM14
 70
     0
 71
     1
 91
        1
 92
        1
 93
        1
 72
     4
 94
        3
 73
     0
 74
     0
 95
       99
 96
       95
 40
0.0
 40
0.0
 40
0.0
 40
0.0
 40
0.0796417172272583
 40
0.1621768542356555
 40
0.248648916095808
 40
0.3404969668525348
 40
0.4381912511165065
 40
0.5434463660245512
 40
0.6518115192847136
 40
0.7530190937886542
 40
0.849219691972467
 40
0.94192903129977
 40
1.034249663569978
 40
1.129078600620146
 40
1.226697027573198
 40
1.327220425421661
 40
1.470572134937985
 40
1.595489863371208
 40
1.71993412534833
 40
1.850576620127399
 40
1.989059629987275
 40
2.134139054226909
 40
2.280698007207194
 40
2.424529739039482
 40
2.565929576985842
 40
2.708239260773472
 40
2.861717887443621
 40
3.045168540347336
 40
3.18379830113858
 40
3.314813961455435
 40
3.442083470447293
 40
3.569912708372932
 40
3.702177512509368
 40
3.842307559659487
 40
3.992872223245903
 40
4.156750662218277
 40
4.310981861107583
 40
4.445859909322642
 40
4.572393936131584
 40
4.70165671978194
 40
4.768279086008424
 40
4.83596069789836
 40
4.912788918729283
 40
5.006285208481486
 40
5.02690947875159
 40
5.047533749021155
 40
5.101808031471213
 40
5.162325165538527
 40
5.226919745995841
 40
5.294231806596714
 40
5.364544852554825
 40
5.43831905546795
 40
5.517877651324241
 40
5.607647714861554
 40
5.700449642544387
 40
5.788251142364145
 40
5.872714706039783
 40
5.955167292575285
 40
6.037192395190404
 40
6.120669181469122
 40
6.206848616686327
 40
6.296680855416749
 40
6.442558392872563
 40
6.568190371608225
 40
6.692904567360286
 40
6.824220446557078
 40
6.963121850329359
 40
7.1078437388512
 40
7.253431663907254
 40
7.395187468036648
 40
7.533140753237712
 40
7.670550457175181
 40
7.816236511769213
 40
7.987691657359176
 40
8.142277421969212
 40
8.293662615414991
 40
8.442962460879249
 40
8.59159831618531
 40
8.743678992361787
 40
8.903725323699163
 40
9.076307008890431
 40
9.265578604680556
 40
9.459203795360688
 40
9.617619810273395
 40
9.75360967136185
 40
9.874873300004056
 40
9.954520184977747
 40
10.02416413719244
 40
10.09769764405443
 40
10.1890995592497
 40
10.20974586420135
 40
10.23039218263386
 40
10.30057101881269
 40
10.37632012987547
 40
10.37632012987547
 40
10.37632012987547
 40
10.37632012987547
 10
111.772090735547
 20
-85.25659771598096
 10
111.7887170370838
 20
-85.27734825968778
 10
111.8225736726197
 20
-85.31960323102187
 10
111.8854775060656
 20
-85.37425623422017
 10
111.9587453460013
 20
-85.42156409693038
 10
112.0430921758255
 20
-85.45928203376153
 10
112.1387193135079
 20
-85.4841481508214
 10
112.2426806294965
 20
-85.49145875468153
 10
112.3478972740024
 20
-85.48313112020035
 10
112.4461578890952
 20
-85.45306255162559
 10
112.5313938947167
 20
-85.40606611842216
 10
112.6034172725722
 20
-85.3450244356323
 10
112.6605870228715
 20
-85.27042465235509
 10
112.7022821267058
 20
-85.18452970153912
 10
112.7281905365912
 20
-85.08969584381882
 10
112.7372989852273
 20
-84.97600455775725
 10
112.7241817316106
 20
-84.85122847043309
 10
112.6580282854033
 20
-84.73440715642202
 10
112.5624323439188
 20
-84.64942895236706
 10
112.4504633541988
 20
-84.58038750354933
 10
112.3248612102888
 20
-84.52251292768197
 10
112.1911644140475
 20
-84.4708171152975
 10
112.0568075338449
 20
-84.41556342416908
 10
111.9306936506496
 20
-84.34515664172443
 10
111.8181532507154
 20
-84.25669894082844
 10
111.7224915584078
 20
-84.14474366945609
 10
111.6589109671444
 20
-83.99505524712711
 10
111.6455659024634
 20
-83.83522640428947
 10
111.6575463507067
 20
-83.68407029507246
 10
111.696725144846
 20
-83.5564619022255
 10
111.7609940270529
 20
-83.44374560783243
 10
111.8493157519359
 20
-83.34806825545402
 10
111.9593043727246
 20
-83.27101219828339
 10
112.0887236920884
 20
-83.21304037877809
 10
112.2366791487412
 20
-83.1771625722527
 10
112.3937021975106
 20
-83.1670871576353
 10
112.5429892986049
 20
-83.17591797051497
 10
112.685120613379
 20
-83.20380535473737
 10
112.7850875129245
 20
-83.26042120112952
 10
112.9380027255803
 20
-83.30780832708584
 10
112.8710084236787
 20
-83.39257881812905
 10
112.8551431639888
 20
-83.46016532940608
 10
112.8233703050916
 20
-83.52529342020895
 10
112.840515472919
 20
-83.62731981557147
 10
112.7921379727851
 20
-83.61962223132184
 10
112.7570741960384
 20
-83.62648663089286
 10
112.7551650505337
 20
-83.5619160365589
 10
112.7240645451608
 20
-83.51629795192696
 10
112.6919504148075
 20
-83.45894398185631
 10
112.6462990994787
 20
-83.40914972121536
 10
112.5913460738006
 20
-83.3646062109509
 10
112.5265793692626
 20
-83.32691445977542
 10
112.4487329830215
 20
-83.30172059022736
 10
112.3610113072971
 20
-83.29524203815976
 10
112.2707855797426
 20
-83.30219725528485
 10
112.1849547213683
 20
-83.32546244353168
 10
112.1083296158215
 20
-83.36323790706541
 10
112.042021815582
 20
-83.41403793724517
 10
111.9877513056583
 20
-83.4772429140688
 10
111.9479877865077
 20
-83.55178979103718
 10
111.9231728030208
 20
-83.63538120816331
 10
111.9147076782489
 20
-83.74262486431803
 10
111.9274650506723
 20
-83.8648997754653
 10
111.9936500928892
 20
-83.98305710522878
 10
112.0895929919451
 20
-84.06849109104564
 10
112.2012867482802
 20
-84.13872072507367
 10
112.3265816188322
 20
-84.19796272508788
 10
112.4604776461067
 20
-84.24838726727955
 10
112.5944882852769
 20
-84.30132917829704
 10
112.7205837836534
 20
-84.3670526418892
 10
112.8331169158036
 20
-84.44975082276764
 10
112.9286322803851
 20
-84.55459428504018
 10
112.9927659006582
 20
-84.69518317562515
 10
113.0066056244897
 20
-84.85390025362497
 10
112.9928907231849
 20
-85.01302279596214
 10
112.9499691673604
 20
-85.1597160599488
 10
112.8800858848685
 20
-85.29335638226948
 10
112.7829544733448
 20
-85.40923047114799
 10
112.6602758543276
 20
-85.50365453044003
 10
112.5129360932787
 20
-85.57276164162104
 10
112.3432085016744
 20
-85.61502223955242
 10
112.1572357499216
 20
-85.6267369858368
 10
111.9783908445802
 20
-85.61645948130655
 10
111.8136686273363
 20
-85.5748886104493
 10
111.7089363360676
 20
-85.50657791930152
 10
111.5605913309984
 20
-85.45780215781983
 10
111.6235330714348
 20
-85.36478843523248
 10
111.6327226949679
 20
-85.29158898565808
 10
111.655866382085
 20
-85.22519140312744
 10
111.6289540854936
 20
-85.12480625286506
 10
111.6776291475958
 20
-85.13221401296711
 10
111.7171483100316
 20
-85.12561371193193
 10
111.7251157464321
 20
-85.2037673159516
 10
111.7560389487542
 20
-85.23854507438233
 10
111.772090735547
 20
-85.25659771598096
 97
        1
330
B4
 75
     1
 76
     2
 52
45.0
 41
0.1
 77
     0
 78
     1
 53
45.0
 43
0.0
 44
0.0
 45
-0.282842712474619
 46
0.0
 79
     0
 98
        1
 10
0.0
 20
0.0
  0
ENDBLK
  5
4A
330
48
100
AcDbEntity
  8
0
100
AcDbBlockEnd
  0
BLOCK
  5
4D
330
4B
100
AcDbEntity
  8
0
100
AcDbBlockBegin
  2
開示A4枠
 70
     0
 10
-58.37450474803808
 20
-99.3945543481409
 30
0.0
  3
開示A4枠
  1

  0
INSERT
  5
4C
330
4B
100
AcDbEntity
  8
1
100
AcDbBlockReference
  2
開示A4
 10
-58.37450474803808
 20
-99.3945543481409
 30
0.0
  0
ENDBLK
  5
4E
330
4B
100
AcDbEntity
  8
0
100
AcDbBlockEnd
  0
BLOCK
  5
50
330
4F
100
AcDbEntity
  8
0
100
AcDbBlockBegin
  2
H80-99
 70
     0
 10
-3.50000000000001
 20
-34.5
 30
0.0
  3
H80-99
  1

  0
LINE
  5
D1
330
4F
100
AcDbEntity
  8
1
  6
Continuous
 62
     7
100
AcDbLine
 10
106.5
 20
139.0
 30
0.0
 11
6.49999999999999
 21
139.0
 31
0.0
  0
LINE
  5
D2
330
4F
100
AcDbEntity
  8
1
  6
Continuous
 62
     7
100
AcDbLine
 10
6.49999999999999
 20
119.0
 30
0.0
 11
106.5
 21
119.0
 31
0.0
  0
CIRCLE
  5
D3
330
4F
100
AcDbEntity
  8
1
  6
Continuous
 62
     7
100
AcDbCircle
 10
56.49999999999999
 20
25.5
 30
0.0
 40
60.00000000000001
  0
CIRCLE
  5
D4
330
4F
100
AcDbEntity
  8
1
  6
Continuous
 62
     7
100
AcDbCircle
 10
56.49999999999999
 20
25.5
 30
0.0
 40
40.00000000000001
  0
ARC
  5
D5
330
4F
100
AcDbEntity
  8
1
  6
Continuous
 62
     7
100
AcDbCircle
 10
106.5
 20
129.0
 30
0.0
 40
10.0
100
AcDbArc
 50
270.0
 51
90.0
  0
ARC
  5
D6
330
4F
100
AcDbEntity
  8
1
  6
DASHED
 62
     2
100
AcDbCircle
 10
106.5
 20
129.0
 30
0.0
 40
10.0
100
AcDbArc
 50
90.0
 51
270.0
  0
ARC
  5
D7
330
4F
100
AcDbEntity
  8
1
  6
DASHED
 62
     2
100
AcDbCircle
 10
6.49999999999999
 20
129.0
 30
0.0
 40
10.0
100
AcDbArc
 50
270.0
 51
90.0
  0
ARC
  5
D8
330
4F
100
AcDbEntity
  8
1
  6
Continuous
 62
     7
100
AcDbCircle
 10
6.49999999999999
 20
129.0
 30
0.0
 40
10.0
100
AcDbArc
 50
90.0
 51
270.0
  0
ENDBLK
  5
51
330
4F
100
AcDbEntity
  8
0
100
AcDbBlockEnd
  0
BLOCK
  5
F2
330
ED
100
AcDbEntity
  8
0
100
AcDbBlockBegin
  2
*D4
 70
     1
 10
0.0
 20
0.0
 30
0.0
  3
*D4
  1

  0
LINE
  5
EE
330
ED
100
AcDbEntity
  8
1
  6
Continuous
 62
     2
100
AcDbLine
 10
-1.6440388399981
 20
10.69220653261287
 30
0.0
 11
114.6440388399982
 21
40.30779346738713
 31
0.0
  0
SOLID
  5
EF
330
ED
100
AcDbEntity
  8
1
 62
     2
100
AcDbTrace
 10
111.3660230822998
 20
38.99747505235847
 30
0.0
 11
111.1385833996968
 21
39.8905359778873
 31
0.0
 12
114.6440388399982
 22
40.30779346738713
 32
0.0
 13
114.6440388399982
 23
40.30779346738713
 33
0.0
  0
SOLID
  5
F0
330
ED
100
AcDbEntity
  8
1
 62
     2
100
AcDbTrace
 10
1.63397691770029
 20
12.00252494764154
 30
0.0
 11
1.86141660030328
 21
11.1094640221127
 31
0.0
 12
-1.6440388399981
 22
10.69220653261287
 32
0.0
 13
-1.6440388399981
 23
10.69220653261287
 33
0.0
  0
MTEXT
  5
F1
330
ED
100
AcDbEntity
  8
1
 62
     7
100
AcDbMText
 10
99.32547716348301
 20
38.47038933009875
 30
0.0
 40
3.0
 41
0.0
 71
     7
 72
     1
  1
\C7;{\Fgdt;n}\C7;120
  7
CONVERTER_12
 11
0.9690673139999683
 21
0.2467965577897853
 31
0.0
 73
     1
 44
0.60024009603842
  0
ENDBLK
  5
F3
330
ED
100
AcDbEntity
  8
0
100
AcDbBlockEnd
  0
BLOCK
  5
FA
330
F5
100
AcDbEntity
  8
0
100
AcDbBlockBegin
  2
*D5
 70
     1
 10
0.0
 20
0.0
 30
0.0
  3
*D5
  1

  0
LINE
  5
F6
330
F5
100
AcDbEntity
  8
1
  6
Continuous
 62
     2
100
AcDbLine
 10
20.83939392838131
 20
7.38036494283528
 30
0.0
 11
92.16060607161869
 21
43.61963505716471
 31
0.0
  0
SOLID
  5
F7
330
F5
100
AcDbEntity
  8
1
 62
     2
100
AcDbTrace
 10
89.24903387128374
 20
41.62337130236703
 30
0.0
 11
88.83157220942036
 21
42.44496267695858
 31
0.0
 12
92.16060607161869
 22
43.61963505716471
 32
0.0
 13
92.16060607161869
 23
43.61963505716471
 33
0.0
  0
SOLID
  5
F8
330
F5
100
AcDbEntity
  8
1
 62
     2
100
AcDbTrace
 10
23.75096612871625
 20
9.37662869763296
 30
0.0
 11
24.16842779057963
 21
8.55503732304141
 31
0.0
 12
20.83939392838131
 22
7.38036494283528
 32
0.0
 13
20.83939392838131
 23
7.38036494283528
 33
0.0
  0
MTEXT
  5
F9
330
F5
100
AcDbEntity
  8
1
 62
     7
100
AcDbMText
 10
73.9672326616816
 20
36.61870842834111
 30
0.0
 40
3.0
 41
0.0
 71
     7
 72
     1
  1
\C7;{\Fgdt;n}\C7;80
  7
CONVERTER_12
 11
0.8915151517904671
 21
0.4529908764291179
 31
0.0
 73
     1
 44
0.60024009603842
  0
ENDBLK
  5
FB
330
F5
100
AcDbEntity
  8
0
100
AcDbBlockEnd
  0
BLOCK
  5
101
330
FD
100
AcDbEntity
  8
0
100
AcDbBlockBegin
  2
*D6
 70
     1
 10
0.0
 20
0.0
 30
0.0
  3
*D6
  1

  0
LINE
  5
FE
330
FD
100
AcDbEntity
  8
1
  6
Continuous
 62
     2
100
AcDbLine
 10
106.5
 20
129.0
 30
0.0
 11
120.9095879428439
 21
114.5904120571562
 31
0.0
  0
SOLID
  5
FF
330
FD
100
AcDbEntity
  8
1
 62
     2
100
AcDbTrace
 10
110.7703707693979
 20
124.0779826139728
 30
0.0
 11
111.4220173860273
 21
124.7296292306021
 31
0.0
 12
113.5710678118655
 22
121.9289321881346
 32
0.0
 13
113.5710678118655
 23
121.9289321881346
 33
0.0
  0
MTEXT
  5
100
330
FD
100
AcDbEntity
  8
1
 62
     7
100
AcDbMText
 10
117.4023383081586
 20
120.9260888165876
 30
0.0
 40
3.0
 41
0.0
 71
     7
 72
     1
  1
\C7;{\Fgdt;n}\C7;20
  7
CONVERTER_12
 11
0.7071067811865478
 21
-0.7071067811865471
 31
0.0
 73
     1
 44
0.60024009603842
  0
ENDBLK
  5
102
330
FD
100
AcDbEntity
  8
0
100
AcDbBlockEnd
  0
ENDSEC
  0
SECTION
  2
ENTITIES
  0
INSERT
  5
52
330
1F
100
AcDbEntity
  8
0
100
AcDbBlockReference
  2
開示A4枠
 10
-58.37450474803808
 20
-99.3945543481409
 30
0.0
  0
INSERT
  5
53
330
1F
100
AcDbEntity
  8
1
100
AcDbBlockReference
  2
H80-99
 10
-3.50000000000001
 20
-34.5
 30
0.0
  0
LINE
  5
D9
330
1F
100
AcDbEntity
  8
1
  6
DASH_CENTER
 62
     2
100
AcDbLine
 10
56.49999999999999
 20
88.2412680534737
 30
0.0
 11
56.49999999999999
 21
-37.47493573058522
 31
0.0
  0
LINE
  5
DA
330
1F
100
AcDbEntity
  8
1
  6
DASH_CENTER
 62
     2
100
AcDbLine
 10
-6.49789526267021
 20
25.5
 30
0.0
 11
119.5021047373298
 21
25.5
 31
0.0
  0
LINE
  5
DB
330
1F
100
AcDbEntity
  8
1
  6
DASH_CENTER
 62
     2
100
AcDbLine
 10
106.5
 20
142.0000556280216
 30
0.0
 11
106.5
 21
116.0000556280216
 31
0.0
  0
LINE
  5
DC
330
1F
100
AcDbEntity
  8
1
  6
DASH_CENTER
 62
     2
100
AcDbLine
 10
56.49999999999999
 20
142.0000556280216
 30
0.0
 11
56.49999999999999
 21
116.0000556280216
 31
0.0
  0
LINE
  5
DD
330
1F
100
AcDbEntity
  8
1
  6
DASH_CENTER
 62
     2
100
AcDbLine
 10
6.49999999999999
 20
142.0000556280216
 30
0.0
 11
6.49999999999999
 21
116.0000556280216
 31
0.0
  0
SOLID
  5
DE
330
1F
100
AcDbEntity
  8
1
 62
     2
100
AcDbTrace
 10
102.2296292306021
 20
133.9220173860272
 30
0.0
 11
101.5779826139728
 21
133.2703707693979
 31
0.0
 12
99.42893218813451
 22
136.0710678118655
 32
0.0
 13
99.42893218813451
 23
136.0710678118655
 33
0.0
  0
LEADER
  5
DF
330
1F
100
AcDbEntity
  8
1
  6
Continuous
 62
     2
100
AcDbLeader
  3
Standard
 71
     0
 76
     2
 10
99.42893218813451
 20
136.0710678118655
 30
0.0
 10
106.5
 20
129.0
 30
0.0
  0
MTEXT
  5
E1
330
1F
100
AcDbEntity
  8
1
 62
     7
100
AcDbMText
 10
99.12549525196195
 20
-86.8945543481409
 30
0.0
 40
2.5
 41
0.0
 71
     5
 72
     1
  1
3
  7
CONVERTER_12
 73
     1
 44
0.7202881152461
  0
MTEXT
  5
E2
330
1F
100
AcDbEntity
  8
1
 62
     7
100
AcDbMText
 10
93.37549525196195
 20
-86.8945543481409
 30
0.0
 40
2.5
 41
0.0
 71
     5
 72
     1
  1
04
  7
CONVERTER_12
 73
     1
 44
0.7202881152461
  0
MTEXT
  5
E3
330
1F
100
AcDbEntity
  8
1
 62
     7
100
AcDbMText
 10
82.12549525196195
 20
-86.8945543481409
 30
0.0
 40
2.5
 41
0.0
 71
     5
 72
     1
  1
3
  7
CONVERTER_12
 73
     1
 44
0.7202881152461
  0
MTEXT
  5
E4
330
1F
100
AcDbEntity
  8
1
 62
     7
100
AcDbMText
 10
76.37549525196195
 20
-86.8945543481409
 30
0.0
 40
2.5
 41
0.0
 71
     5
 72
     1
  1
04
  7
CONVERTER_12
 73
     1
 44
0.7202881152461
  0
MTEXT
  5
E5
330
1F
100
AcDbEntity
  8
1
 62
     7
100
AcDbMText
 10
65.12549525196195
 20
-86.8945543481409
 30
0.0
 40
2.5
 41
0.0
 71
     5
 72
     1
  1
3
  7
CONVERTER_12
 73
     1
 44
0.7202881152461
  0
MTEXT
  5
E6
330
1F
100
AcDbEntity
  8
1
 62
     7
100
AcDbMText
 10
59.37549525196195
 20
-86.8945543481409
 30
0.0
 40
2.5
 41
0.0
 71
     5
 72
     1
  1
04
  7
CONVERTER_12
 73
     1
 44
0.7202881152461
  0
MTEXT
  5
E7
330
1F
100
AcDbEntity
  8
1
 62
     7
100
AcDbMText
 10
42.37549525196195
 20
-86.8945543481409
 30
0.0
 40
2.5
 41
0.0
 71
     5
 72
     1
  1
04
  7
CONVERTER_12
 73
     1
 44
0.7202881152461
  0
MTEXT
  5
E8
330
1F
100
AcDbEntity
  8
1
 62
     7
100
AcDbMText
 10
48.12549525196195
 20
-86.8945543481409
 30
0.0
 40
2.5
 41
0.0
 71
     5
 72
     1
  1
3
  7
CONVERTER_12
 73
     1
 44
0.7202881152461
  0
MTEXT
  5
E9
330
1F
100
AcDbEntity
  8
1
 62
     7
100
AcDbMText
 10
26.87549525196195
 20
-82.39455434814086
 30
0.0
 40
3.5
 41
0.0
 71
     5
 72
     1
  1
1
  7
CONVERTER_12
 73
     1
 44
0.7202881152461
  0
MTEXT
  5
EA
330
1F
100
AcDbEntity
  8
1
 62
     7
100
AcDbMText
 10
-1.37450474803808
 20
-76.64455434814083
 30
0.0
 40
3.5
 41
0.0
 71
     5
 72
     1
  1
床フランジ用パテ
  7
CONVERTER_11
 73
     1
 44
0.54545454545455
  0
MTEXT
  5
EB
330
1F
100
AcDbEntity
  8
1
 62
     7
100
AcDbMText
 10
-1.37450474803808
 20
-85.14455434814086
 30
0.0
 40
3.5
 41
0.0
 71
     5
 72
     1
  1
H80-99
  7
CONVERTER_12
 73
     1
 44
0.7202881152461
  0
MTEXT
  5
EC
330
1F
100
AcDbEntity
  8
1
 62
     7
100
AcDbMText
 10
35.37549525196195
 20
-82.39455434814086
 30
0.0
 40
3.5
 41
0.0
 71
     5
 72
     1
  1
1
  7
CONVERTER_12
 73
     1
 44
0.7202881152461
  0
INSERT
  5
F4
330
1F
100
AcDbEntity
  8
1
100
AcDbBlockReference
  2
*D4
 10
0.0
 20
0.0
 30
0.0
  0
INSERT
  5
FC
330
1F
100
AcDbEntity
  8
1
100
AcDbBlockReference
  2
*D5
 10
0.0
 20
0.0
 30
0.0
  0
INSERT
  5
103
330
1F
100
AcDbEntity
  8
1
100
AcDbBlockReference
  2
*D6
 10
0.0
 20
0.0
 30
0.0
  0
ENDSEC
  0
SECTION
  2
OBJECTS
  0
DICTIONARY
  5
C
330
0
100
AcDbDictionary
281
     1
  3
ACAD_GROUP
350
D
  3
ACAD_LAYOUT
350
1A
  3
ACAD_MATERIAL
350
3B
  3
ACAD_MLEADERSTYLE
350
106
  3
ACAD_MLINESTYLE
350
17
  3
ACAD_PLOTSETTINGS
350
19
  3
ACAD_PLOTSTYLENAME
350
E
  3
ACAD_VISUALSTYLE
350
2A
  3
AcDbVariableDictionary
350
104
  0
DICTIONARY
  5
D
102
{ACAD_REACTORS
330
C
102
}
330
C
100
AcDbDictionary
281
     1
  0
DICTIONARY
  5
1A
102
{ACAD_REACTORS
330
C
102
}
330
C
100
AcDbDictionary
281
     1
  3
Layout1
350
1E
  3
Layout2
350
26
  3
Model
350
22
  0
DICTIONARY
  5
3B
102
{ACAD_REACTORS
330
C
102
}
330
C
100
AcDbDictionary
281
     1
  3
ByBlock
350
3D
  3
ByLayer
350
3C
  3
Global
350
3E
  0
DICTIONARY
  5
106
102
{ACAD_REACTORS
330
C
102
}
330
C
100
AcDbDictionary
281
     1
  0
DICTIONARY
  5
17
102
{ACAD_REACTORS
330
C
102
}
330
C
100
AcDbDictionary
281
     1
  3
Standard
350
18
  0
DICTIONARY
  5
19
102
{ACAD_REACTORS
330
C
102
}
330
C
100
AcDbDictionary
281
     1
  0
ACDBDICTIONARYWDFLT
  5
E
102
{ACAD_REACTORS
330
C
102
}
330
C
100
AcDbDictionary
281
     1
  3
Normal
350
F
100
AcDbDictionaryWithDefault
340
F
  0
DICTIONARY
  5
2A
102
{ACAD_REACTORS
330
C
102
}
330
C
100
AcDbDictionary
281
     1
  3
2dWireframe
350
2F
  3
3D Hidden
350
31
  3
3dWireframe
350
30
  3
Basic
350
32
  3
Brighten
350
36
  3
ColorChange
350
3A
  3
Conceptual
350
34
  3
Dim
350
35
  3
Facepattern
350
39
  3
Flat
350
2B
  3
FlatWithEdges
350
2C
  3
Gouraud
350
2D
  3
GouraudWithEdges
350
2E
  3
Linepattern
350
38
  3
Realistic
350
33
  3
Thicken
350
37
  0
DICTIONARY
  5
104
102
{ACAD_REACTORS
330
C
102
}
330
C
100
AcDbDictionary
281
     1
  3
DIMASSOC
350
107
  3
HIDETEXT
350
108
  0
LAYOUT
  5
1E
102
{ACAD_REACTORS
330
1A
102
}
330
1A
100
AcDbPlotSettings
  1

  2
none_device
  4

  6

 40
0.0
 41
0.0
 42
0.0
 43
0.0
 44
0.0
 45
0.0
 46
0.0
 47
0.0
 48
0.0
 49
0.0
140
0.0
141
0.0
142
1.0
143
1.0
 70
   688
 72
     0
 73
     0
 74
     5
  7

 75
    16
147
1.0
148
0.0
149
0.0
100
AcDbLayout
  1
Layout1
 70
     1
 71
     1
 10
0.0
 20
0.0
 11
12.0
 21
9.0
 12
0.0
 22
0.0
 32
0.0
 14
1.00000000000000E+20
 24
1.00000000000000E+20
 34
1.00000000000000E+20
 15
-1.00000000000000E+20
 25
-1.00000000000000E+20
 35
-1.00000000000000E+20
146
0.0
 13
0.0
 23
0.0
 33
0.0
 16
1.0
 26
0.0
 36
0.0
 17
0.0
 27
1.0
 37
0.0
 76
     0
330
1B
  0
LAYOUT
  5
26
102
{ACAD_REACTORS
330
1A
102
}
330
1A
100
AcDbPlotSettings
  1

  2
none_device
  4

  6

 40
0.0
 41
0.0
 42
0.0
 43
0.0
 44
0.0
 45
0.0
 46
0.0
 47
0.0
 48
0.0
 49
0.0
140
0.0
141
0.0
142
1.0
143
1.0
 70
   688
 72
     0
 73
     0
 74
     5
  7

 75
    16
147
1.0
148
0.0
149
0.0
100
AcDbLayout
  1
Layout2
 70
     1
 71
     2
 10
0.0
 20
0.0
 11
0.0
 21
0.0
 12
0.0
 22
0.0
 32
0.0
 14
0.0
 24
0.0
 34
0.0
 15
0.0
 25
0.0
 35
0.0
146
0.0
 13
0.0
 23
0.0
 33
0.0
 16
1.0
 26
0.0
 36
0.0
 17
0.0
 27
1.0
 37
0.0
 76
     0
330
23
  0
LAYOUT
  5
22
102
{ACAD_REACTORS
330
1A
102
}
330
1A
100
AcDbPlotSettings
  1

  2
none_device
  4

  6

 40
0.0
 41
0.0
 42
0.0
 43
0.0
 44
0.0
 45
0.0
 46
0.0
 47
0.0
 48
0.0
 49
0.0
140
0.0
141
0.0
142
1.0
143
1.0
 70
  1712
 72
     0
 73
     0
 74
     0
  7

 75
     0
147
1.0
148
0.0
149
0.0
100
AcDbLayout
  1
Model
 70
     1
 71
     0
 10
0.0
 20
0.0
 11
12.0
 21
9.0
 12
0.0
 22
0.0
 32
0.0
 14
-58.37450474803808
 24
-99.3945543481409
 34
0.0
 15
151.625495251962
 25
197.6054456518591
 35
0.0
146
0.0
 13
0.0
 23
0.0
 33
0.0
 16
1.0
 26
0.0
 36
0.0
 17
0.0
 27
1.0
 37
0.0
 76
     0
330
1F
331
29
  0
MATERIAL
  5
3D
102
{ACAD_REACTORS
330
3B
102
}
102
{ACAD_XDICTIONARY
360
12B
102
}
330
3B
100
AcDbMaterial
  1
ByBlock
  0
MATERIAL
  5
3C
102
{ACAD_REACTORS
330
3B
102
}
102
{ACAD_XDICTIONARY
360
129
102
}
330
3B
100
AcDbMaterial
  1
ByLayer
  0
MATERIAL
  5
3E
102
{ACAD_REACTORS
330
3B
102
}
102
{ACAD_XDICTIONARY
360
12D
102
}
330
3B
100
AcDbMaterial
  1
Global
  0
MLINESTYLE
  5
18
102
{ACAD_REACTORS
330
17
102
}
330
17
100
AcDbMlineStyle
  2
Standard
 70
     0
  3

 62
   256
 51
90.0
 52
90.0
 71
     2
 49
0.5
 62
   256
  6
BYLAYER
 49
-0.5
 62
   256
  6
BYLAYER
  0
ACDBPLACEHOLDER
  5
F
102
{ACAD_REACTORS
330
E
102
}
330
E
  0
VISUALSTYLE
  5
2F
102
{ACAD_REACTORS
330
2A
102
}
102
{ACAD_XDICTIONARY
360
111
102
}
330
2A
100
AcDbVisualStyle
  2
2dWireframe
 70
     4
 71
     0
 72
     2
 73
     0
 90
        0
 40
-0.6
 41
-30.0
 62
     5
 63
     7
 74
     1
 91
        4
 64
     7
 65
   257
 75
     1
175
     1
 42
1.0
 92
        0
 66
   257
 43
1.0
 76
     1
 77
     6
 78
     2
 67
     7
 79
     5
170
     0
171
     0
290
     0
174
     0
 93
        1
 44
0.0
173
     0
291
     0
 45
0.0
1001
ACAD
1000
AcDbSavedByObjectVersion
1070
     0
  0
VISUALSTYLE
  5
31
102
{ACAD_REACTORS
330
2A
102
}
102
{ACAD_XDICTIONARY
360
115
102
}
330
2A
100
AcDbVisualStyle
  2
3D Hidden
 70
     6
 71
     1
 72
     2
 73
     2
 90
        0
 40
-0.6
 41
-30.0
 62
     5
 63
     7
 74
     2
 91
        2
 64
     7
 65
   257
 75
     2
175
     1
 42
40.0
 92
        0
 66
   257
 43
1.0
 76
     1
 77
     6
 78
     2
 67
     7
 79
     3
170
     0
171
     0
290
     0
174
     0
 93
        1
 44
0.0
173
     0
291
     0
 45
0.0
1001
ACAD
1000
AcDbSavedByObjectVersion
1070
     0
  0
VISUALSTYLE
  5
30
102
{ACAD_REACTORS
330
2A
102
}
102
{ACAD_XDICTIONARY
360
113
102
}
330
2A
100
AcDbVisualStyle
  2
3dWireframe
 70
     5
 71
     0
 72
     2
 73
     0
 90
        0
 40
-0.6
 41
-30.0
 62
     5
 63
     7
 74
     1
 91
        4
 64
     7
 65
   257
 75
     1
175
     1
 42
1.0
 92
        0
 66
   257
 43
1.0
 76
     1
 77
     6
 78
     2
 67
     7
 79
     5
170
     0
171
     0
290
     0
174
     0
 93
        1
 44
0.0
173
     0
291
     0
 45
0.0
1001
ACAD
1000
AcDbSavedByObjectVersion
1070
     0
  0
VISUALSTYLE
  5
32
102
{ACAD_REACTORS
330
2A
102
}
102
{ACAD_XDICTIONARY
360
117
102
}
330
2A
100
AcDbVisualStyle
  2
Basic
 70
     7
 71
     1
 72
     0
 73
     1
 90
        0
 40
-0.6
 41
-30.0
 62
     5
 63
     7
 74
     0
 91
        4
 64
     7
 65
   257
 75
     1
175
     1
 42
1.0
 92
        8
 66
     7
 43
1.0
 76
     1
 77
     6
 78
     2
 67
     7
 79
     5
170
     0
171
     0
290
     0
174
     0
 93
        1
 44
0.0
173
     0
291
     1
 45
0.0
1001
ACAD
1000
AcDbSavedByObjectVersion
1070
     0
  0
VISUALSTYLE
  5
36
102
{ACAD_REACTORS
330
2A
102
}
102
{ACAD_XDICTIONARY
360
11F
102
}
330
2A
100
AcDbVisualStyle
  2
Brighten
 70
    12
 71
     2
 72
     2
 73
     0
 90
        0
 40
-0.6
 41
-30.0
 62
     5
 63
     7
 74
     1
 91
        4
 64
     7
 65
   257
 75
     1
175
     1
 42
1.0
 92
        8
 66
     7
 43
1.0
 76
     1
 77
     6
 78
     2
 67
     7
 79
     5
170
     0
171
     0
290
     0
174
     0
 93
        1
 44
50.0
173
     0
291
     1
 45
0.0
1001
ACAD
1000
AcDbSavedByObjectVersion
1070
     0
  0
VISUALSTYLE
  5
3A
102
{ACAD_REACTORS
330
2A
102
}
102
{ACAD_XDICTIONARY
360
127
102
}
330
2A
100
AcDbVisualStyle
  2
ColorChange
 70
    16
 71
     2
 72
     2
 73
     3
 90
        0
 40
-0.6
 41
-30.0
 62
     5
 63
     8
 74
     1
 91
        4
 64
     7
 65
   257
 75
     1
175
     1
 42
1.0
 92
        8
 66
     8
 43
1.0
 76
     1
 77
     6
 78
     2
 67
     7
 79
     5
170
     0
171
     0
290
     0
174
     0
 93
        1
 44
0.0
173
     0
291
     1
 45
0.0
1001
ACAD
1000
AcDbSavedByObjectVersion
1070
     0
  0
VISUALSTYLE
  5
34
102
{ACAD_REACTORS
330
2A
102
}
102
{ACAD_XDICTIONARY
360
11B
102
}
330
2A
100
AcDbVisualStyle
  2
Conceptual
 70
     9
 71
     3
 72
     2
 73
     0
 90
        0
 40
-0.6
 41
-30.0
 62
     5
 63
     7
 74
     2
 91
        2
 64
     7
 65
   257
 75
     1
175
     1
 42
40.0
 92
        8
 66
     7
 43
1.0
 76
     1
 77
     6
 78
     2
 67
     7
 79
     3
170
     0
171
     0
290
     0
174
     0
 93
        1
 44
0.0
173
     0
291
     0
 45
0.0
1001
ACAD
1000
AcDbSavedByObjectVersion
1070
     0
  0
VISUALSTYLE
  5
35
102
{ACAD_REACTORS
330
2A
102
}
102
{ACAD_XDICTIONARY
360
11D
102
}
330
2A
100
AcDbVisualStyle
  2
Dim
 70
    11
 71
     2
 72
     2
 73
     0
 90
        0
 40
-0.6
 41
-30.0
 62
     5
 63
     7
 74
     1
 91
        4
 64
     7
 65
   257
 75
     1
175
     1
 42
1.0
 92
        8
 66
     7
 43
1.0
 76
     1
 77
     6
 78
     2
 67
     7
 79
     5
170
     0
171
     0
290
     0
174
     0
 93
        1
 44
-50.0
173
     0
291
     1
 45
0.0
1001
ACAD
1000
AcDbSavedByObjectVersion
1070
     0
  0
VISUALSTYLE
  5
39
102
{ACAD_REACTORS
330
2A
102
}
102
{ACAD_XDICTIONARY
360
125
102
}
330
2A
100
AcDbVisualStyle
  2
Facepattern
 70
    15
 71
     2
 72
     2
 73
     0
 90
        0
 40
-0.6
 41
-30.0
 62
     5
 63
     7
 74
     1
 91
        4
 64
     7
 65
   257
 75
     1
175
     1
 42
1.0
 92
        8
 66
     7
 43
1.0
 76
     1
 77
     6
 78
     2
 67
     7
 79
     5
170
     0
171
     0
290
     0
174
     0
 93
        1
 44
0.0
173
     0
291
     1
 45
0.0
1001
ACAD
1000
AcDbSavedByObjectVersion
1070
     0
  0
VISUALSTYLE
  5
2B
102
{ACAD_REACTORS
330
2A
102
}
102
{ACAD_XDICTIONARY
360
109
102
}
330
2A
100
AcDbVisualStyle
  2
Flat
 70
     0
 71
     2
 72
     1
 73
     1
 90
        2
 40
-0.6
 41
30.0
 62
     5
 63
     7
 74
     0
 91
        4
 64
     7
 65
   257
 75
     1
175
     1
 42
1.0
 92
        8
 66
     7
 43
1.0
 76
     1
 77
     6
 78
     2
 67
     7
 79
     5
170
     0
171
     0
290
     0
174
     0
 93
       13
 44
0.0
173
     0
291
     1
 45
0.0
1001
ACAD
1000
AcDbSavedByObjectVersion
1070
     0
  0
VISUALSTYLE
  5
2C
102
{ACAD_REACTORS
330
2A
102
}
102
{ACAD_XDICTIONARY
360
10B
102
}
330
2A
100
AcDbVisualStyle
  2
FlatWithEdges
 70
     1
 71
     2
 72
     1
 73
     1
 90
        2
 40
-0.6
 41
30.0
 62
     5
 63
     7
 74
     1
 91
        4
 64
     7
 65
   257
 75
     1
175
     1
 42
1.0
 92
        0
 66
   257
 43
1.0
 76
     1
 77
     6
 78
     2
 67
     7
 79
     5
170
     0
171
     0
290
     0
174
     0
 93
       13
 44
0.0
173
     0
291
     1
 45
0.0
1001
ACAD
1000
AcDbSavedByObjectVersion
1070
     0
  0
VISUALSTYLE
  5
2D
102
{ACAD_REACTORS
330
2A
102
}
102
{ACAD_XDICTIONARY
360
10D
102
}
330
2A
100
AcDbVisualStyle
  2
Gouraud
 70
     2
 71
     2
 72
     2
 73
     1
 90
        2
 40
-0.6
 41
30.0
 62
     5
 63
     7
 74
     0
 91
        4
 64
     7
 65
   257
 75
     1
175
     1
 42
1.0
 92
        0
 66
     7
 43
1.0
 76
     1
 77
     6
 78
     2
 67
     7
 79
     5
170
     0
171
     0
290
     0
174
     0
 93
       13
 44
0.0
173
     0
291
     1
 45
0.0
1001
ACAD
1000
AcDbSavedByObjectVersion
1070
     0
  0
VISUALSTYLE
  5
2E
102
{ACAD_REACTORS
330
2A
102
}
102
{ACAD_XDICTIONARY
360
10F
102
}
330
2A
100
AcDbVisualStyle
  2
GouraudWithEdges
 70
     3
 71
     2
 72
     2
 73
     1
 90
        2
 40
-0.6
 41
30.0
 62
     5
 63
     7
 74
     1
 91
        4
 64
     7
 65
   257
 75
     1
175
     1
 42
1.0
 92
        0
 66
   257
 43
1.0
 76
     1
 77
     6
 78
     2
 67
     7
 79
     5
170
     0
171
     0
290
     0
174
     0
 93
       13
 44
0.0
173
     0
291
     1
 45
0.0
1001
ACAD
1000
AcDbSavedByObjectVersion
1070
     0
  0
VISUALSTYLE
  5
38
102
{ACAD_REACTORS
330
2A
102
}
102
{ACAD_XDICTIONARY
360
123
102
}
330
2A
100
AcDbVisualStyle
  2
Linepattern
 70
    14
 71
     2
 72
     2
 73
     0
 90
        0
 40
-0.6
 41
-30.0
 62
     5
 63
     7
 74
     1
 91
        4
 64
     7
 65
   257
 75
     7
175
     7
 42
1.0
 92
        8
 66
     7
 43
1.0
 76
     1
 77
     6
 78
     2
 67
     7
 79
     5
170
     0
171
     0
290
     0
174
     0
 93
        1
 44
0.0
173
     0
291
     1
 45
0.0
1001
ACAD
1000
AcDbSavedByObjectVersion
1070
     0
  0
VISUALSTYLE
  5
33
102
{ACAD_REACTORS
330
2A
102
}
102
{ACAD_XDICTIONARY
360
119
102
}
330
2A
100
AcDbVisualStyle
  2
Realistic
 70
     8
 71
     2
 72
     2
 73
     0
 90
        0
 40
-0.6
 41
-30.0
 62
     5
 63
     7
 74
     1
 91
        0
 64
     7
 65
   257
 75
     1
175
     1
 42
1.0
 92
        8
 66
     8
 43
1.0
 76
     1
 77
     6
 78
     2
 67
     7
 79
     5
170
     0
171
     0
290
     0
174
     0
 93
       13
 44
0.0
173
     0
291
     0
 45
0.0
1001
ACAD
1000
AcDbSavedByObjectVersion
1070
     0
  0
VISUALSTYLE
  5
37
102
{ACAD_REACTORS
330
2A
102
}
102
{ACAD_XDICTIONARY
360
121
102
}
330
2A
100
AcDbVisualStyle
  2
Thicken
 70
    13
 71
     2
 72
     2
 73
     0
 90
        0
 40
-0.6
 41
-30.0
 62
     5
 63
     7
 74
     1
 91
        4
 64
     7
 65
   257
 75
     1
175
     1
 42
1.0
 92
       12
 66
     7
 43
1.0
 76
     1
 77
     6
 78
     2
 67
     7
 79
     5
170
     0
171
     0
290
     0
174
     0
 93
        1
 44
0.0
173
     0
291
     1
 45
0.0
1001
ACAD
1000
AcDbSavedByObjectVersion
1070
     0
  0
DICTIONARYVAR
  5
107
102
{ACAD_REACTORS
330
104
102
}
330
104
100
DictionaryVariables
280
     0
  1
2
  0
DICTIONARYVAR
  5
108
102
{ACAD_REACTORS
330
104
102
}
330
104
100
DictionaryVariables
280
     0
  1
1
  0
DICTIONARY
  5
12B
330
3D
100
AcDbDictionary
280
     1
281
     1
  3
ACAD_XREC_ROUNDTRIP
360
12C
  0
DICTIONARY
  5
129
330
3C
100
AcDbDictionary
280
     1
281
     1
  3
ACAD_XREC_ROUNDTRIP
360
12A
  0
DICTIONARY
  5
12D
330
3E
100
AcDbDictionary
280
     1
281
     1
  3
ACAD_XREC_ROUNDTRIP
360
12E
  0
DICTIONARY
  5
111
330
2F
100
AcDbDictionary
280
     1
281
     1
  3
ACAD_XREC_ROUNDTRIP
360
112
  0
DICTIONARY
  5
115
330
31
100
AcDbDictionary
280
     1
281
     1
  3
ACAD_XREC_ROUNDTRIP
360
116
  0
DICTIONARY
  5
113
330
30
100
AcDbDictionary
280
     1
281
     1
  3
ACAD_XREC_ROUNDTRIP
360
114
  0
DICTIONARY
  5
117
330
32
100
AcDbDictionary
280
     1
281
     1
  3
ACAD_XREC_ROUNDTRIP
360
118
  0
DICTIONARY
  5
11F
330
36
100
AcDbDictionary
280
     1
281
     1
  3
ACAD_XREC_ROUNDTRIP
360
120
  0
DICTIONARY
  5
127
330
3A
100
AcDbDictionary
280
     1
281
     1
  3
ACAD_XREC_ROUNDTRIP
360
128
  0
DICTIONARY
  5
11B
330
34
100
AcDbDictionary
280
     1
281
     1
  3
ACAD_XREC_ROUNDTRIP
360
11C
  0
DICTIONARY
  5
11D
330
35
100
AcDbDictionary
280
     1
281
     1
  3
ACAD_XREC_ROUNDTRIP
360
11E
  0
DICTIONARY
  5
125
330
39
100
AcDbDictionary
280
     1
281
     1
  3
ACAD_XREC_ROUNDTRIP
360
126
  0
DICTIONARY
  5
109
330
2B
100
AcDbDictionary
280
     1
281
     1
  3
ACAD_XREC_ROUNDTRIP
360
10A
  0
DICTIONARY
  5
10B
330
2C
100
AcDbDictionary
280
     1
281
     1
  3
ACAD_XREC_ROUNDTRIP
360
10C
  0
DICTIONARY
  5
10D
330
2D
100
AcDbDictionary
280
     1
281
     1
  3
ACAD_XREC_ROUNDTRIP
360
10E
  0
DICTIONARY
  5
10F
330
2E
100
AcDbDictionary
280
     1
281
     1
  3
ACAD_XREC_ROUNDTRIP
360
110
  0
DICTIONARY
  5
123
330
38
100
AcDbDictionary
280
     1
281
     1
  3
ACAD_XREC_ROUNDTRIP
360
124
  0
DICTIONARY
  5
119
330
33
100
AcDbDictionary
280
     1
281
     1
  3
ACAD_XREC_ROUNDTRIP
360
11A
  0
DICTIONARY
  5
121
330
37
100
AcDbDictionary
280
     1
281
     1
  3
ACAD_XREC_ROUNDTRIP
360
122
  0
XRECORD
  5
12C
102
{ACAD_REACTORS
330
12B
102
}
330
12B
100
AcDbXrecord
280
     1
102
MATERIAL
148
0.0
149
0.0
149
0.0
 93
        0
 94
      127
282
     0
 72
     1
 77
     1
171
     1
175
     1
179
     1
273
     0
  0
XRECORD
  5
12A
102
{ACAD_REACTORS
330
129
102
}
330
129
100
AcDbXrecord
280
     1
102
MATERIAL
148
0.0
149
0.0
149
0.0
 93
        0
 94
      127
282
     0
 72
     1
 77
     1
171
     1
175
     1
179
     1
273
     0
  0
XRECORD
  5
12E
102
{ACAD_REACTORS
330
12D
102
}
330
12D
100
AcDbXrecord
280
     1
102
MATERIAL
148
0.0
149
0.0
149
0.0
 93
        0
 94
      127
282
     0
 72
     1
 77
     1
171
     1
175
     1
179
     1
273
     0
  0
XRECORD
  5
112
102
{ACAD_REACTORS
330
111
102
}
330
111
100
AcDbXrecord
280
     1
102
RTVSPropertyOp0
 70
     1
102
RTVSPropertyOp1
 70
     1
102
RTVSPropertyOp2
 70
     1
102
RTVSPropertyOp3
 70
     1
102
RTVSPropertyOp4
 70
     1
102
RTVSPropertyOp5
 70
     1
102
RTVSPropertyOp6
 70
     1
102
RTVSPropertyOp7
 70
     1
102
RTVSPropertyOp8
 70
     1
102
RTVSPropertyOp9
 70
     1
102
RTVSPropertyOp10
 70
     1
102
RTVSPropertyOp11
 70
     1
102
RTVSPropertyOp12
 70
     1
102
RTVSPropertyOp13
 70
     1
102
RTVSPropertyOp14
 70
     1
102
RTVSPropertyOp15
 70
     1
102
RTVSPropertyOp16
 70
     1
102
RTVSPropertyOp17
 70
     1
102
RTVSPropertyOp18
 70
     1
102
RTVSPropertyOp19
 70
     1
102
RTVSPropertyOp20
 70
     1
102
RTVSPropertyOp21
 70
     1
102
RTVSPropertyOp22
 70
     1
102
RTVSPropertyOp23
 70
     1
102
RTVSPropertyOp24
 70
     1
102
RTVSPropertyOp25
 70
     1
102
RTVSPropertyOp26
 70
     1
102
RTVSPropertyOp27
 70
     1
102
RTVSPropertyOp28
 70
     1
102
RTVSPropertyOp29
 70
     1
102
RTVSPropertyOp30
 70
     1
102
RTVSPropertyOp31
 70
     1
102
RTVSPropertyOp32
 70
     1
  0
XRECORD
  5
116
102
{ACAD_REACTORS
330
115
102
}
330
115
100
AcDbXrecord
280
     1
102
RTVSPropertyOp0
 70
     1
102
RTVSPropertyOp1
 70
     1
102
RTVSPropertyOp2
 70
     1
102
RTVSPropertyOp3
 70
     1
102
RTVSPropertyOp4
 70
     1
102
RTVSPropertyOp5
 70
     1
102
RTVSPropertyOp6
 70
     1
102
RTVSPropertyOp7
 70
     1
102
RTVSPropertyOp8
 70
     1
102
RTVSPropertyOp9
 70
     1
102
RTVSPropertyOp10
 70
     1
102
RTVSPropertyOp11
 70
     1
102
RTVSPropertyOp12
 70
     1
102
RTVSPropertyOp13
 70
     1
102
RTVSPropertyOp14
 70
     1
102
RTVSPropertyOp15
 70
     1
102
RTVSPropertyOp16
 70
     1
102
RTVSPropertyOp17
 70
     1
102
RTVSPropertyOp18
 70
     1
102
RTVSPropertyOp19
 70
     1
102
RTVSPropertyOp20
 70
     1
102
RTVSPropertyOp21
 70
     1
102
RTVSPropertyOp22
 70
     1
102
RTVSPropertyOp23
 70
     1
102
RTVSPropertyOp24
 70
     1
102
RTVSPropertyOp25
 70
     1
102
RTVSPropertyOp26
 70
     1
102
RTVSPropertyOp27
 70
     1
102
RTVSPropertyOp28
 70
     1
102
RTVSPropertyOp29
 70
     1
102
RTVSPropertyOp30
 70
     1
102
RTVSPropertyOp31
 70
     1
102
RTVSPropertyOp32
 70
     1
  0
XRECORD
  5
114
102
{ACAD_REACTORS
330
113
102
}
330
113
100
AcDbXrecord
280
     1
102
RTVSPropertyOp0
 70
     1
102
RTVSPropertyOp1
 70
     1
102
RTVSPropertyOp2
 70
     1
102
RTVSPropertyOp3
 70
     1
102
RTVSPropertyOp4
 70
     1
102
RTVSPropertyOp5
 70
     1
102
RTVSPropertyOp6
 70
     1
102
RTVSPropertyOp7
 70
     1
102
RTVSPropertyOp8
 70
     1
102
RTVSPropertyOp9
 70
     1
102
RTVSPropertyOp10
 70
     1
102
RTVSPropertyOp11
 70
     1
102
RTVSPropertyOp12
 70
     1
102
RTVSPropertyOp13
 70
     1
102
RTVSPropertyOp14
 70
     1
102
RTVSPropertyOp15
 70
     1
102
RTVSPropertyOp16
 70
     1
102
RTVSPropertyOp17
 70
     1
102
RTVSPropertyOp18
 70
     1
102
RTVSPropertyOp19
 70
     1
102
RTVSPropertyOp20
 70
     1
102
RTVSPropertyOp21
 70
     1
102
RTVSPropertyOp22
 70
     1
102
RTVSPropertyOp23
 70
     1
102
RTVSPropertyOp24
 70
     1
102
RTVSPropertyOp25
 70
     1
102
RTVSPropertyOp26
 70
     1
102
RTVSPropertyOp27
 70
     1
102
RTVSPropertyOp28
 70
     1
102
RTVSPropertyOp29
 70
     1
102
RTVSPropertyOp30
 70
     1
102
RTVSPropertyOp31
 70
     1
102
RTVSPropertyOp32
 70
     1
  0
XRECORD
  5
118
102
{ACAD_REACTORS
330
117
102
}
330
117
100
AcDbXrecord
280
     1
102
RTVSPropertyOp0
 70
     1
102
RTVSPropertyOp1
 70
     1
102
RTVSPropertyOp2
 70
     1
102
RTVSPropertyOp3
 70
     1
102
RTVSPropertyOp4
 70
     1
102
RTVSPropertyOp5
 70
     1
102
RTVSPropertyOp6
 70
     1
102
RTVSPropertyOp7
 70
     1
102
RTVSPropertyOp8
 70
     1
102
RTVSPropertyOp9
 70
     1
102
RTVSPropertyOp10
 70
     1
102
RTVSPropertyOp11
 70
     1
102
RTVSPropertyOp12
 70
     1
102
RTVSPropertyOp13
 70
     1
102
RTVSPropertyOp14
 70
     1
102
RTVSPropertyOp15
 70
     1
102
RTVSPropertyOp16
 70
     1
102
RTVSPropertyOp17
 70
     1
102
RTVSPropertyOp18
 70
     1
102
RTVSPropertyOp19
 70
     1
102
RTVSPropertyOp20
 70
     1
102
RTVSPropertyOp21
 70
     1
102
RTVSPropertyOp22
 70
     1
102
RTVSPropertyOp23
 70
     1
102
RTVSPropertyOp24
 70
     1
102
RTVSPropertyOp25
 70
     1
102
RTVSPropertyOp26
 70
     1
102
RTVSPropertyOp27
 70
     1
102
RTVSPropertyOp28
 70
     1
102
RTVSPropertyOp29
 70
     1
102
RTVSPropertyOp30
 70
     1
102
RTVSPropertyOp31
 70
     1
102
RTVSPropertyOp32
 70
     1
  0
XRECORD
  5
120
102
{ACAD_REACTORS
330
11F
102
}
330
11F
100
AcDbXrecord
280
     1
102
RTVSPropertyOp0
 70
     1
102
RTVSPropertyOp1
 70
     1
102
RTVSPropertyOp2
 70
     1
102
RTVSPropertyOp3
 70
     1
102
RTVSPropertyOp4
 70
     1
102
RTVSPropertyOp5
 70
     1
102
RTVSPropertyOp6
 70
     1
102
RTVSPropertyOp7
 70
     1
102
RTVSPropertyOp8
 70
     1
102
RTVSPropertyOp9
 70
     1
102
RTVSPropertyOp10
 70
     1
102
RTVSPropertyOp11
 70
     1
102
RTVSPropertyOp12
 70
     1
102
RTVSPropertyOp13
 70
     1
102
RTVSPropertyOp14
 70
     1
102
RTVSPropertyOp15
 70
     1
102
RTVSPropertyOp16
 70
     1
102
RTVSPropertyOp17
 70
     1
102
RTVSPropertyOp18
 70
     1
102
RTVSPropertyOp19
 70
     1
102
RTVSPropertyOp20
 70
     1
102
RTVSPropertyOp21
 70
     1
102
RTVSPropertyOp22
 70
     1
102
RTVSPropertyOp23
 70
     1
102
RTVSPropertyOp24
 70
     1
102
RTVSPropertyOp25
 70
     1
102
RTVSPropertyOp26
 70
     1
102
RTVSPropertyOp27
 70
     1
102
RTVSPropertyOp28
 70
     1
102
RTVSPropertyOp29
 70
     1
102
RTVSPropertyOp30
 70
     1
102
RTVSPropertyOp31
 70
     1
102
RTVSPropertyOp32
 70
     1
  0
XRECORD
  5
128
102
{ACAD_REACTORS
330
127
102
}
330
127
100
AcDbXrecord
280
     1
102
RTVSPropertyOp0
 70
     1
102
RTVSPropertyOp1
 70
     1
102
RTVSPropertyOp2
 70
     1
102
RTVSPropertyOp3
 70
     1
102
RTVSPropertyOp4
 70
     1
102
RTVSPropertyOp5
 70
     1
102
RTVSPropertyOp6
 70
     1
102
RTVSPropertyOp7
 70
     1
102
RTVSPropertyOp8
 70
     1
102
RTVSPropertyOp9
 70
     1
102
RTVSPropertyOp10
 70
     1
102
RTVSPropertyOp11
 70
     1
102
RTVSPropertyOp12
 70
     1
102
RTVSPropertyOp13
 70
     1
102
RTVSPropertyOp14
 70
     1
102
RTVSPropertyOp15
 70
     1
102
RTVSPropertyOp16
 70
     1
102
RTVSPropertyOp17
 70
     1
102
RTVSPropertyOp18
 70
     1
102
RTVSPropertyOp19
 70
     1
102
RTVSPropertyOp20
 70
     1
102
RTVSPropertyOp21
 70
     1
102
RTVSPropertyOp22
 70
     1
102
RTVSPropertyOp23
 70
     1
102
RTVSPropertyOp24
 70
     1
102
RTVSPropertyOp25
 70
     1
102
RTVSPropertyOp26
 70
     1
102
RTVSPropertyOp27
 70
     1
102
RTVSPropertyOp28
 70
     1
102
RTVSPropertyOp29
 70
     1
102
RTVSPropertyOp30
 70
     1
102
RTVSPropertyOp31
 70
     1
102
RTVSPropertyOp32
 70
     1
  0
XRECORD
  5
11C
102
{ACAD_REACTORS
330
11B
102
}
330
11B
100
AcDbXrecord
280
     1
102
RTVSPropertyOp0
 70
     1
102
RTVSPropertyOp1
 70
     1
102
RTVSPropertyOp2
 70
     1
102
RTVSPropertyOp3
 70
     1
102
RTVSPropertyOp4
 70
     1
102
RTVSPropertyOp5
 70
     1
102
RTVSPropertyOp6
 70
     1
102
RTVSPropertyOp7
 70
     1
102
RTVSPropertyOp8
 70
     1
102
RTVSPropertyOp9
 70
     1
102
RTVSPropertyOp10
 70
     1
102
RTVSPropertyOp11
 70
     1
102
RTVSPropertyOp12
 70
     1
102
RTVSPropertyOp13
 70
     1
102
RTVSPropertyOp14
 70
     1
102
RTVSPropertyOp15
 70
     1
102
RTVSPropertyOp16
 70
     1
102
RTVSPropertyOp17
 70
     1
102
RTVSPropertyOp18
 70
     1
102
RTVSPropertyOp19
 70
     1
102
RTVSPropertyOp20
 70
     1
102
RTVSPropertyOp21
 70
     1
102
RTVSPropertyOp22
 70
     1
102
RTVSPropertyOp23
 70
     1
102
RTVSPropertyOp24
 70
     1
102
RTVSPropertyOp25
 70
     1
102
RTVSPropertyOp26
 70
     1
102
RTVSPropertyOp27
 70
     1
102
RTVSPropertyOp28
 70
     1
102
RTVSPropertyOp29
 70
     1
102
RTVSPropertyOp30
 70
     1
102
RTVSPropertyOp31
 70
     1
102
RTVSPropertyOp32
 70
     1
  0
XRECORD
  5
11E
102
{ACAD_REACTORS
330
11D
102
}
330
11D
100
AcDbXrecord
280
     1
102
RTVSPropertyOp0
 70
     1
102
RTVSPropertyOp1
 70
     1
102
RTVSPropertyOp2
 70
     1
102
RTVSPropertyOp3
 70
     1
102
RTVSPropertyOp4
 70
     1
102
RTVSPropertyOp5
 70
     1
102
RTVSPropertyOp6
 70
     1
102
RTVSPropertyOp7
 70
     1
102
RTVSPropertyOp8
 70
     1
102
RTVSPropertyOp9
 70
     1
102
RTVSPropertyOp10
 70
     1
102
RTVSPropertyOp11
 70
     1
102
RTVSPropertyOp12
 70
     1
102
RTVSPropertyOp13
 70
     1
102
RTVSPropertyOp14
 70
     1
102
RTVSPropertyOp15
 70
     1
102
RTVSPropertyOp16
 70
     1
102
RTVSPropertyOp17
 70
     1
102
RTVSPropertyOp18
 70
     1
102
RTVSPropertyOp19
 70
     1
102
RTVSPropertyOp20
 70
     1
102
RTVSPropertyOp21
 70
     1
102
RTVSPropertyOp22
 70
     1
102
RTVSPropertyOp23
 70
     1
102
RTVSPropertyOp24
 70
     1
102
RTVSPropertyOp25
 70
     1
102
RTVSPropertyOp26
 70
     1
102
RTVSPropertyOp27
 70
     1
102
RTVSPropertyOp28
 70
     1
102
RTVSPropertyOp29
 70
     1
102
RTVSPropertyOp30
 70
     1
102
RTVSPropertyOp31
 70
     1
102
RTVSPropertyOp32
 70
     1
  0
XRECORD
  5
126
102
{ACAD_REACTORS
330
125
102
}
330
125
100
AcDbXrecord
280
     1
102
RTVSPropertyOp0
 70
     1
102
RTVSPropertyOp1
 70
     1
102
RTVSPropertyOp2
 70
     1
102
RTVSPropertyOp3
 70
     1
102
RTVSPropertyOp4
 70
     1
102
RTVSPropertyOp5
 70
     1
102
RTVSPropertyOp6
 70
     1
102
RTVSPropertyOp7
 70
     1
102
RTVSPropertyOp8
 70
     1
102
RTVSPropertyOp9
 70
     1
102
RTVSPropertyOp10
 70
     1
102
RTVSPropertyOp11
 70
     1
102
RTVSPropertyOp12
 70
     1
102
RTVSPropertyOp13
 70
     1
102
RTVSPropertyOp14
 70
     1
102
RTVSPropertyOp15
 70
     1
102
RTVSPropertyOp16
 70
     1
102
RTVSPropertyOp17
 70
     1
102
RTVSPropertyOp18
 70
     1
102
RTVSPropertyOp19
 70
     1
102
RTVSPropertyOp20
 70
     1
102
RTVSPropertyOp21
 70
     1
102
RTVSPropertyOp22
 70
     1
102
RTVSPropertyOp23
 70
     1
102
RTVSPropertyOp24
 70
     1
102
RTVSPropertyOp25
 70
     1
102
RTVSPropertyOp26
 70
     1
102
RTVSPropertyOp27
 70
     1
102
RTVSPropertyOp28
 70
     1
102
RTVSPropertyOp29
 70
     1
102
RTVSPropertyOp30
 70
     1
102
RTVSPropertyOp31
 70
     1
102
RTVSPropertyOp32
 70
     1
  0
XRECORD
  5
10A
102
{ACAD_REACTORS
330
109
102
}
330
109
100
AcDbXrecord
280
     1
102
RTVSPropertyOp0
 70
     1
102
RTVSPropertyOp1
 70
     1
102
RTVSPropertyOp2
 70
     1
102
RTVSPropertyOp3
 70
     1
102
RTVSPropertyOp4
 70
     1
102
RTVSPropertyOp5
 70
     1
102
RTVSPropertyOp6
 70
     1
102
RTVSPropertyOp7
 70
     1
102
RTVSPropertyOp8
 70
     1
102
RTVSPropertyOp9
 70
     1
102
RTVSPropertyOp10
 70
     1
102
RTVSPropertyOp11
 70
     1
102
RTVSPropertyOp12
 70
     1
102
RTVSPropertyOp13
 70
     1
102
RTVSPropertyOp14
 70
     1
102
RTVSPropertyOp15
 70
     1
102
RTVSPropertyOp16
 70
     1
102
RTVSPropertyOp17
 70
     1
102
RTVSPropertyOp18
 70
     1
102
RTVSPropertyOp19
 70
     1
102
RTVSPropertyOp20
 70
     1
102
RTVSPropertyOp21
 70
     1
102
RTVSPropertyOp22
 70
     1
102
RTVSPropertyOp23
 70
     1
102
RTVSPropertyOp24
 70
     1
102
RTVSPropertyOp25
 70
     1
102
RTVSPropertyOp26
 70
     1
102
RTVSPropertyOp27
 70
     1
102
RTVSPropertyOp28
 70
     1
102
RTVSPropertyOp29
 70
     1
102
RTVSPropertyOp30
 70
     1
102
RTVSPropertyOp31
 70
     1
102
RTVSPropertyOp32
 70
     1
  0
XRECORD
  5
10C
102
{ACAD_REACTORS
330
10B
102
}
330
10B
100
AcDbXrecord
280
     1
102
RTVSPropertyOp0
 70
     1
102
RTVSPropertyOp1
 70
     1
102
RTVSPropertyOp2
 70
     1
102
RTVSPropertyOp3
 70
     1
102
RTVSPropertyOp4
 70
     1
102
RTVSPropertyOp5
 70
     1
102
RTVSPropertyOp6
 70
     1
102
RTVSPropertyOp7
 70
     1
102
RTVSPropertyOp8
 70
     1
102
RTVSPropertyOp9
 70
     1
102
RTVSPropertyOp10
 70
     1
102
RTVSPropertyOp11
 70
     1
102
RTVSPropertyOp12
 70
     1
102
RTVSPropertyOp13
 70
     1
102
RTVSPropertyOp14
 70
     1
102
RTVSPropertyOp15
 70
     1
102
RTVSPropertyOp16
 70
     1
102
RTVSPropertyOp17
 70
     1
102
RTVSPropertyOp18
 70
     1
102
RTVSPropertyOp19
 70
     1
102
RTVSPropertyOp20
 70
     1
102
RTVSPropertyOp21
 70
     1
102
RTVSPropertyOp22
 70
     1
102
RTVSPropertyOp23
 70
     1
102
RTVSPropertyOp24
 70
     1
102
RTVSPropertyOp25
 70
     1
102
RTVSPropertyOp26
 70
     1
102
RTVSPropertyOp27
 70
     1
102
RTVSPropertyOp28
 70
     1
102
RTVSPropertyOp29
 70
     1
102
RTVSPropertyOp30
 70
     1
102
RTVSPropertyOp31
 70
     1
102
RTVSPropertyOp32
 70
     1
  0
XRECORD
  5
10E
102
{ACAD_REACTORS
330
10D
102
}
330
10D
100
AcDbXrecord
280
     1
102
RTVSPropertyOp0
 70
     1
102
RTVSPropertyOp1
 70
     1
102
RTVSPropertyOp2
 70
     1
102
RTVSPropertyOp3
 70
     1
102
RTVSPropertyOp4
 70
     1
102
RTVSPropertyOp5
 70
     1
102
RTVSPropertyOp6
 70
     1
102
RTVSPropertyOp7
 70
     1
102
RTVSPropertyOp8
 70
     1
102
RTVSPropertyOp9
 70
     1
102
RTVSPropertyOp10
 70
     1
102
RTVSPropertyOp11
 70
     1
102
RTVSPropertyOp12
 70
     1
102
RTVSPropertyOp13
 70
     1
102
RTVSPropertyOp14
 70
     1
102
RTVSPropertyOp15
 70
     1
102
RTVSPropertyOp16
 70
     1
102
RTVSPropertyOp17
 70
     1
102
RTVSPropertyOp18
 70
     1
102
RTVSPropertyOp19
 70
     1
102
RTVSPropertyOp20
 70
     1
102
RTVSPropertyOp21
 70
     1
102
RTVSPropertyOp22
 70
     1
102
RTVSPropertyOp23
 70
     1
102
RTVSPropertyOp24
 70
     1
102
RTVSPropertyOp25
 70
     1
102
RTVSPropertyOp26
 70
     1
102
RTVSPropertyOp27
 70
     1
102
RTVSPropertyOp28
 70
     1
102
RTVSPropertyOp29
 70
     1
102
RTVSPropertyOp30
 70
     1
102
RTVSPropertyOp31
 70
     1
102
RTVSPropertyOp32
 70
     1
  0
XRECORD
  5
110
102
{ACAD_REACTORS
330
10F
102
}
330
10F
100
AcDbXrecord
280
     1
102
RTVSPropertyOp0
 70
     1
102
RTVSPropertyOp1
 70
     1
102
RTVSPropertyOp2
 70
     1
102
RTVSPropertyOp3
 70
     1
102
RTVSPropertyOp4
 70
     1
102
RTVSPropertyOp5
 70
     1
102
RTVSPropertyOp6
 70
     1
102
RTVSPropertyOp7
 70
     1
102
RTVSPropertyOp8
 70
     1
102
RTVSPropertyOp9
 70
     1
102
RTVSPropertyOp10
 70
     1
102
RTVSPropertyOp11
 70
     1
102
RTVSPropertyOp12
 70
     1
102
RTVSPropertyOp13
 70
     1
102
RTVSPropertyOp14
 70
     1
102
RTVSPropertyOp15
 70
     1
102
RTVSPropertyOp16
 70
     1
102
RTVSPropertyOp17
 70
     1
102
RTVSPropertyOp18
 70
     1
102
RTVSPropertyOp19
 70
     1
102
RTVSPropertyOp20
 70
     1
102
RTVSPropertyOp21
 70
     1
102
RTVSPropertyOp22
 70
     1
102
RTVSPropertyOp23
 70
     1
102
RTVSPropertyOp24
 70
     1
102
RTVSPropertyOp25
 70
     1
102
RTVSPropertyOp26
 70
     1
102
RTVSPropertyOp27
 70
     1
102
RTVSPropertyOp28
 70
     1
102
RTVSPropertyOp29
 70
     1
102
RTVSPropertyOp30
 70
     1
102
RTVSPropertyOp31
 70
     1
102
RTVSPropertyOp32
 70
     1
  0
XRECORD
  5
124
102
{ACAD_REACTORS
330
123
102
}
330
123
100
AcDbXrecord
280
     1
102
RTVSPropertyOp0
 70
     1
102
RTVSPropertyOp1
 70
     1
102
RTVSPropertyOp2
 70
     1
102
RTVSPropertyOp3
 70
     1
102
RTVSPropertyOp4
 70
     1
102
RTVSPropertyOp5
 70
     1
102
RTVSPropertyOp6
 70
     1
102
RTVSPropertyOp7
 70
     1
102
RTVSPropertyOp8
 70
     1
102
RTVSPropertyOp9
 70
     1
102
RTVSPropertyOp10
 70
     1
102
RTVSPropertyOp11
 70
     1
102
RTVSPropertyOp12
 70
     1
102
RTVSPropertyOp13
 70
     1
102
RTVSPropertyOp14
 70
     1
102
RTVSPropertyOp15
 70
     1
102
RTVSPropertyOp16
 70
     1
102
RTVSPropertyOp17
 70
     1
102
RTVSPropertyOp18
 70
     1
102
RTVSPropertyOp19
 70
     1
102
RTVSPropertyOp20
 70
     1
102
RTVSPropertyOp21
 70
     1
102
RTVSPropertyOp22
 70
     1
102
RTVSPropertyOp23
 70
     1
102
RTVSPropertyOp24
 70
     1
102
RTVSPropertyOp25
 70
     1
102
RTVSPropertyOp26
 70
     1
102
RTVSPropertyOp27
 70
     1
102
RTVSPropertyOp28
 70
     1
102
RTVSPropertyOp29
 70
     1
102
RTVSPropertyOp30
 70
     1
102
RTVSPropertyOp31
 70
     1
102
RTVSPropertyOp32
 70
     1
  0
XRECORD
  5
11A
102
{ACAD_REACTORS
330
119
102
}
330
119
100
AcDbXrecord
280
     1
102
RTVSPropertyOp0
 70
     1
102
RTVSPropertyOp1
 70
     1
102
RTVSPropertyOp2
 70
     1
102
RTVSPropertyOp3
 70
     1
102
RTVSPropertyOp4
 70
     1
102
RTVSPropertyOp5
 70
     1
102
RTVSPropertyOp6
 70
     1
102
RTVSPropertyOp7
 70
     1
102
RTVSPropertyOp8
 70
     1
102
RTVSPropertyOp9
 70
     1
102
RTVSPropertyOp10
 70
     1
102
RTVSPropertyOp11
 70
     1
102
RTVSPropertyOp12
 70
     1
102
RTVSPropertyOp13
 70
     1
102
RTVSPropertyOp14
 70
     1
102
RTVSPropertyOp15
 70
     1
102
RTVSPropertyOp16
 70
     1
102
RTVSPropertyOp17
 70
     1
102
RTVSPropertyOp18
 70
     1
102
RTVSPropertyOp19
 70
     1
102
RTVSPropertyOp20
 70
     1
102
RTVSPropertyOp21
 70
     1
102
RTVSPropertyOp22
 70
     1
102
RTVSPropertyOp23
 70
     1
102
RTVSPropertyOp24
 70
     1
102
RTVSPropertyOp25
 70
     1
102
RTVSPropertyOp26
 70
     1
102
RTVSPropertyOp27
 70
     1
102
RTVSPropertyOp28
 70
     1
102
RTVSPropertyOp29
 70
     1
102
RTVSPropertyOp30
 70
     1
102
RTVSPropertyOp31
 70
     1
102
RTVSPropertyOp32
 70
     1
  0
XRECORD
  5
122
102
{ACAD_REACTORS
330
121
102
}
330
121
100
AcDbXrecord
280
     1
102
RTVSPropertyOp0
 70
     1
102
RTVSPropertyOp1
 70
     1
102
RTVSPropertyOp2
 70
     1
102
RTVSPropertyOp3
 70
     1
102
RTVSPropertyOp4
 70
     1
102
RTVSPropertyOp5
 70
     1
102
RTVSPropertyOp6
 70
     1
102
RTVSPropertyOp7
 70
     1
102
RTVSPropertyOp8
 70
     1
102
RTVSPropertyOp9
 70
     1
102
RTVSPropertyOp10
 70
     1
102
RTVSPropertyOp11
 70
     1
102
RTVSPropertyOp12
 70
     1
102
RTVSPropertyOp13
 70
     1
102
RTVSPropertyOp14
 70
     1
102
RTVSPropertyOp15
 70
     1
102
RTVSPropertyOp16
 70
     1
102
RTVSPropertyOp17
 70
     1
102
RTVSPropertyOp18
 70
     1
102
RTVSPropertyOp19
 70
     1
102
RTVSPropertyOp20
 70
     1
102
RTVSPropertyOp21
 70
     1
102
RTVSPropertyOp22
 70
     1
102
RTVSPropertyOp23
 70
     1
102
RTVSPropertyOp24
 70
     1
102
RTVSPropertyOp25
 70
     1
102
RTVSPropertyOp26
 70
     1
102
RTVSPropertyOp27
 70
     1
102
RTVSPropertyOp28
 70
     1
102
RTVSPropertyOp29
 70
     1
102
RTVSPropertyOp30
 70
     1
102
RTVSPropertyOp31
 70
     1
102
RTVSPropertyOp32
 70
     1
  0
ENDSEC
  0
EOF
